  0
SECTION
  2
HEADER
  9
$ACADVER
  1
AC1009
  9
$EXTMIN
 10
0.0
 20
0.0
 30
0.0
  9
$EXTMAX
 10
1000.0
 20
1000.0
 30
0.0
  9
$FILLMODE
 70
 0
  9
$SPLFRAME
 70
 1
  0
ENDSEC
  0
SECTION
  2
TABLES
  0
TABLE
  2
LAYER
 70
1
  0
LAYER
  2
0
 70
     0
 62
     7
  6
CONTINUOUS
  0
ENDTAB
  0
ENDSEC
  0
SECTION
  2
ENTITIES
  0
POLYLINE
  8
0
 62
     174
 66
     1
 10
0
 20
0
 30
0.0
 70
     1
 40
0
 41
0
  0
VERTEX
  8
0
 10
1.04167
 20
8.33333
 30
0.0
 40
0
 41
0
  0
VERTEX
  8
0
 10
2.08333
 20
8.33333
 30
0.0
 40
0
 41
0
  0
VERTEX
  8
0
 10
2.08333
 20
7.29167
 30
0.0
 40
0
 41
0
  0
VERTEX
  8
0
 10
1.04167
 20
7.29167
 30
0.0
 40
0
 41
0
  0
VERTEX
  8
0
 10
1.04167
 20
8.33333
 30
0.0
 40
0
 41
0
  0
SEQEND
 8
0
  0
POLYLINE
  8
0
 62
     1
 66
     1
 10
0
 20
0
 30
0.0
 70
     1
 40
12
 41
12
  0
VERTEX
  8
0
 10
3.125
 20
8.33333
 30
0.0
 40
0.166667
 41
0.166667
  0
VERTEX
  8
0
 10
5.20833
 20
8.33333
 30
0.0
 40
0.166667
 41
0.166667
  0
VERTEX
  8
0
 10
5.20833
 20
7.29167
 30
0.0
 40
0.166667
 41
0.166667
  0
VERTEX
  8
0
 10
3.125
 20
7.29167
 30
0.0
 40
0.166667
 41
0.166667
  0
VERTEX
  8
0
 10
3.125
 20
8.33333
 30
0.0
 40
0.166667
 41
0.166667
  0
SEQEND
 8
0
  0
POLYLINE
  8
0
 62
     174
 66
     1
 10
0
 20
0
 30
0.0
 70
     1
 40
0
 41
0
  0
VERTEX
  8
0
 10
2.08333
 20
5.72917
 30
0.0
 40
0
 41
0
  0
VERTEX
  8
0
 10
2.08333
 20
5.70296
 30
0.0
 40
0
 41
0
  0
VERTEX
  8
0
 10
2.07269
 20
5.62424
 30
0.0
 40
0
 41
0
  0
VERTEX
  8
0
 10
2.04237
 20
5.52647
 30
0.0
 40
0
 41
0
  0
VERTEX
  8
0
 10
1.99436
 20
5.43799
 30
0.0
 40
0
 41
0
  0
VERTEX
  8
0
 10
1.93078
 20
5.36089
 30
0.0
 40
0
 41
0
  0
VERTEX
  8
0
 10
1.85368
 20
5.29731
 30
0.0
 40
0
 41
0
  0
VERTEX
  8
0
 10
1.76519
 20
5.24929
 30
0.0
 40
0
 41
0
  0
VERTEX
  8
0
 10
1.66743
 20
5.21897
 30
0.0
 40
0
 41
0
  0
VERTEX
  8
0
 10
1.58871
 20
5.20833
 30
0.0
 40
0
 41
0
  0
VERTEX
  8
0
 10
1.5625
 20
5.20833
 30
0.0
 40
0
 41
0
  0
VERTEX
  8
0
 10
1.53624
 20
5.20833
 30
0.0
 40
0
 41
0
  0
VERTEX
  8
0
 10
1.45751
 20
5.21897
 30
0.0
 40
0
 41
0
  0
VERTEX
  8
0
 10
1.35975
 20
5.24929
 30
0.0
 40
0
 41
0
  0
VERTEX
  8
0
 10
1.27127
 20
5.29731
 30
0.0
 40
0
 41
0
  0
VERTEX
  8
0
 10
1.19417
 20
5.36089
 30
0.0
 40
0
 41
0
  0
VERTEX
  8
0
 10
1.13059
 20
5.43799
 30
0.0
 40
0
 41
0
  0
VERTEX
  8
0
 10
1.08257
 20
5.52647
 30
0.0
 40
0
 41
0
  0
VERTEX
  8
0
 10
1.05225
 20
5.62424
 30
0.0
 40
0
 41
0
  0
VERTEX
  8
0
 10
1.04167
 20
5.70296
 30
0.0
 40
0
 41
0
  0
VERTEX
  8
0
 10
1.04167
 20
5.72917
 30
0.0
 40
0
 41
0
  0
VERTEX
  8
0
 10
1.04167
 20
5.75543
 30
0.0
 40
0
 41
0
  0
VERTEX
  8
0
 10
1.05225
 20
5.83415
 30
0.0
 40
0
 41
0
  0
VERTEX
  8
0
 10
1.08257
 20
5.93192
 30
0.0
 40
0
 41
0
  0
VERTEX
  8
0
 10
1.13059
 20
6.0204
 30
0.0
 40
0
 41
0
  0
VERTEX
  8
0
 10
1.19417
 20
6.0975
 30
0.0
 40
0
 41
0
  0
VERTEX
  8
0
 10
1.27127
 20
6.16108
 30
0.0
 40
0
 41
0
  0
VERTEX
  8
0
 10
1.35975
 20
6.2091
 30
0.0
 40
0
 41
0
  0
VERTEX
  8
0
 10
1.45751
 20
6.23942
 30
0.0
 40
0
 41
0
  0
VERTEX
  8
0
 10
1.53624
 20
6.25
 30
0.0
 40
0
 41
0
  0
VERTEX
  8
0
 10
1.5625
 20
6.25
 30
0.0
 40
0
 41
0
  0
VERTEX
  8
0
 10
1.58871
 20
6.25
 30
0.0
 40
0
 41
0
  0
VERTEX
  8
0
 10
1.66743
 20
6.23942
 30
0.0
 40
0
 41
0
  0
VERTEX
  8
0
 10
1.76519
 20
6.2091
 30
0.0
 40
0
 41
0
  0
VERTEX
  8
0
 10
1.85368
 20
6.16108
 30
0.0
 40
0
 41
0
  0
VERTEX
  8
0
 10
1.93078
 20
6.0975
 30
0.0
 40
0
 41
0
  0
VERTEX
  8
0
 10
1.99436
 20
6.0204
 30
0.0
 40
0
 41
0
  0
VERTEX
  8
0
 10
2.04237
 20
5.93192
 30
0.0
 40
0
 41
0
  0
VERTEX
  8
0
 10
2.07269
 20
5.83415
 30
0.0
 40
0
 41
0
  0
VERTEX
  8
0
 10
2.08333
 20
5.75543
 30
0.0
 40
0
 41
0
  0
VERTEX
  8
0
 10
2.08333
 20
5.72917
 30
0.0
 40
0
 41
0
  0
SEQEND
 8
0
  0
POLYLINE
  8
0
 62
     1
 66
     1
 10
0
 20
0
 30
0.0
 70
     1
 40
12
 41
12
  0
VERTEX
  8
0
 10
5.20833
 20
5.72917
 30
0.0
 40
0.166667
 41
0.166667
  0
VERTEX
  8
0
 10
5.20833
 20
5.70296
 30
0.0
 40
0.166667
 41
0.166667
  0
VERTEX
  8
0
 10
5.18712
 20
5.62424
 30
0.0
 40
0.166667
 41
0.166667
  0
VERTEX
  8
0
 10
5.12646
 20
5.52647
 30
0.0
 40
0.166667
 41
0.166667
  0
VERTEX
  8
0
 10
5.03039
 20
5.43799
 30
0.0
 40
0.166667
 41
0.166667
  0
VERTEX
  8
0
 10
4.90321
 20
5.36089
 30
0.0
 40
0.166667
 41
0.166667
  0
VERTEX
  8
0
 10
4.74903
 20
5.29731
 30
0.0
 40
0.166667
 41
0.166667
  0
VERTEX
  8
0
 10
4.5721
 20
5.24929
 30
0.0
 40
0.166667
 41
0.166667
  0
VERTEX
  8
0
 10
4.37657
 20
5.21897
 30
0.0
 40
0.166667
 41
0.166667
  0
VERTEX
  8
0
 10
4.21913
 20
5.20833
 30
0.0
 40
0.166667
 41
0.166667
  0
VERTEX
  8
0
 10
4.16667
 20
5.20833
 30
0.0
 40
0.166667
 41
0.166667
  0
VERTEX
  8
0
 10
4.11415
 20
5.20833
 30
0.0
 40
0.166667
 41
0.166667
  0
VERTEX
  8
0
 10
3.95671
 20
5.21897
 30
0.0
 40
0.166667
 41
0.166667
  0
VERTEX
  8
0
 10
3.76118
 20
5.24929
 30
0.0
 40
0.166667
 41
0.166667
  0
VERTEX
  8
0
 10
3.58425
 20
5.29731
 30
0.0
 40
0.166667
 41
0.166667
  0
VERTEX
  8
0
 10
3.43007
 20
5.36089
 30
0.0
 40
0.166667
 41
0.166667
  0
VERTEX
  8
0
 10
3.3029
 20
5.43799
 30
0.0
 40
0.166667
 41
0.166667
  0
VERTEX
  8
0
 10
3.20682
 20
5.52647
 30
0.0
 40
0.166667
 41
0.166667
  0
VERTEX
  8
0
 10
3.14615
 20
5.62424
 30
0.0
 40
0.166667
 41
0.166667
  0
VERTEX
  8
0
 10
3.125
 20
5.70296
 30
0.0
 40
0.166667
 41
0.166667
  0
VERTEX
  8
0
 10
3.125
 20
5.72917
 30
0.0
 40
0.166667
 41
0.166667
  0
VERTEX
  8
0
 10
3.125
 20
5.75543
 30
0.0
 40
0.166667
 41
0.166667
  0
VERTEX
  8
0
 10
3.14615
 20
5.83415
 30
0.0
 40
0.166667
 41
0.166667
  0
VERTEX
  8
0
 10
3.20682
 20
5.93192
 30
0.0
 40
0.166667
 41
0.166667
  0
VERTEX
  8
0
 10
3.3029
 20
6.0204
 30
0.0
 40
0.166667
 41
0.166667
  0
VERTEX
  8
0
 10
3.43007
 20
6.0975
 30
0.0
 40
0.166667
 41
0.166667
  0
VERTEX
  8
0
 10
3.58425
 20
6.16108
 30
0.0
 40
0.166667
 41
0.166667
  0
VERTEX
  8
0
 10
3.76118
 20
6.2091
 30
0.0
 40
0.166667
 41
0.166667
  0
VERTEX
  8
0
 10
3.95671
 20
6.23942
 30
0.0
 40
0.166667
 41
0.166667
  0
VERTEX
  8
0
 10
4.11415
 20
6.25
 30
0.0
 40
0.166667
 41
0.166667
  0
VERTEX
  8
0
 10
4.16667
 20
6.25
 30
0.0
 40
0.166667
 41
0.166667
  0
VERTEX
  8
0
 10
4.21913
 20
6.25
 30
0.0
 40
0.166667
 41
0.166667
  0
VERTEX
  8
0
 10
4.37657
 20
6.23942
 30
0.0
 40
0.166667
 41
0.166667
  0
VERTEX
  8
0
 10
4.5721
 20
6.2091
 30
0.0
 40
0.166667
 41
0.166667
  0
VERTEX
  8
0
 10
4.74903
 20
6.16108
 30
0.0
 40
0.166667
 41
0.166667
  0
VERTEX
  8
0
 10
4.90321
 20
6.0975
 30
0.0
 40
0.166667
 41
0.166667
  0
VERTEX
  8
0
 10
5.03039
 20
6.0204
 30
0.0
 40
0.166667
 41
0.166667
  0
VERTEX
  8
0
 10
5.12646
 20
5.93192
 30
0.0
 40
0.166667
 41
0.166667
  0
VERTEX
  8
0
 10
5.18712
 20
5.83415
 30
0.0
 40
0.166667
 41
0.166667
  0
VERTEX
  8
0
 10
5.20833
 20
5.75543
 30
0.0
 40
0.166667
 41
0.166667
  0
VERTEX
  8
0
 10
5.20833
 20
5.72917
 30
0.0
 40
0.166667
 41
0.166667
  0
SEQEND
 8
0
  0
POLYLINE
  8
0
 62
     2
 66
     1
 10
0
 20
0
 30
0.0
 70
     1
 40
0
 41
0
  0
VERTEX
  8
0
 10
8.15717
 20
5.43935
 30
0.0
 40
0
 41
0
  0
VERTEX
  8
0
 10
8.13249
 20
5.42096
 30
0.0
 40
0
 41
0
  0
VERTEX
  8
0
 10
8.05274
 20
5.37354
 30
0.0
 40
0
 41
0
  0
VERTEX
  8
0
 10
7.93099
 20
5.31799
 30
0.0
 40
0
 41
0
  0
VERTEX
  8
0
 10
7.79486
 20
5.27317
 30
0.0
 40
0
 41
0
  0
VERTEX
  8
0
 10
7.64725
 20
5.23964
 30
0.0
 40
0
 41
0
  0
VERTEX
  8
0
 10
7.49104
 20
5.21793
 30
0.0
 40
0
 41
0
  0
VERTEX
  8
0
 10
7.32915
 20
5.20865
 30
0.0
 40
0
 41
0
  0
VERTEX
  8
0
 10
7.16444
 20
5.21218
 30
0.0
 40
0
 41
0
  0
VERTEX
  8
0
 10
7.04075
 20
5.22325
 30
0.0
 40
0
 41
0
  0
VERTEX
  8
0
 10
6.99989
 20
5.22917
 30
0.0
 40
0
 41
0
  0
VERTEX
  8
0
 10
6.96035
 20
5.23497
 30
0.0
 40
0
 41
0
  0
VERTEX
  8
0
 10
6.84283
 20
5.25911
 30
0.0
 40
0
 41
0
  0
VERTEX
  8
0
 10
6.70014
 20
5.3004
 30
0.0
 40
0
 41
0
  0
VERTEX
  8
0
 10
6.57368
 20
5.35183
 30
0.0
 40
0
 41
0
  0
VERTEX
  8
0
 10
6.46528
 20
5.41211
 30
0.0
 40
0
 41
0
  0
VERTEX
  8
0
 10
6.37685
 20
5.48004
 30
0.0
 40
0
 41
0
  0
VERTEX
  8
0
 10
6.31028
 20
5.55442
 30
0.0
 40
0
 41
0
  0
VERTEX
  8
0
 10
6.26747
 20
5.634
 30
0.0
 40
0
 41
0
  0
VERTEX
  8
0
 10
6.25119
 20
5.69656
 30
0.0
 40
0
 41
0
  0
VERTEX
  8
0
 10
6.25028
 20
5.71756
 30
0.0
 40
0
 41
0
  0
VERTEX
  8
0
 10
6.24935
 20
5.73839
 30
0.0
 40
0
 41
0
  0
VERTEX
  8
0
 10
6.25999
 20
5.80149
 30
0.0
 40
0
 41
0
  0
VERTEX
  8
0
 10
6.29568
 20
5.88194
 30
0.0
 40
0
 41
0
  0
VERTEX
  8
0
 10
6.35558
 20
5.95774
 30
0.0
 40
0
 41
0
  0
VERTEX
  8
0
 10
6.43782
 20
6.02756
 30
0.0
 40
0
 41
0
  0
VERTEX
  8
0
 10
6.54075
 20
6.09022
 30
0.0
 40
0
 41
0
  0
VERTEX
  8
0
 10
6.66249
 20
6.14437
 30
0.0
 40
0
 41
0
  0
VERTEX
  8
0
 10
6.80138
 20
6.18881
 30
0.0
 40
0
 41
0
  0
VERTEX
  8
0
 10
6.91672
 20
6.21556
 30
0.0
 40
0
 41
0
  0
VERTEX
  8
0
 10
6.95557
 20
6.22217
 30
0.0
 40
0
 41
0
  0
VERTEX
  8
0
 10
6.99599
 20
6.22906
 30
0.0
 40
0
 41
0
  0
VERTEX
  8
0
 10
7.11843
 20
6.24283
 30
0.0
 40
0
 41
0
  0
VERTEX
  8
0
 10
7.28267
 20
6.25006
 30
0.0
 40
0
 41
0
  0
VERTEX
  8
0
 10
7.44526
 20
6.24436
 30
0.0
 40
0
 41
0
  0
VERTEX
  8
0
 10
7.60325
 20
6.22618
 30
0.0
 40
0
 41
0
  0
VERTEX
  8
0
 10
7.75369
 20
6.19601
 30
0.0
 40
0
 41
0
  0
VERTEX
  8
0
 10
7.89367
 20
6.15429
 30
0.0
 40
0
 41
0
  0
VERTEX
  8
0
 10
8.02024
 20
6.10146
 30
0.0
 40
0
 41
0
  0
VERTEX
  8
0
 10
8.10417
 20
6.05583
 30
0.0
 40
0
 41
0
  0
VERTEX
  8
0
 10
8.13043
 20
6.03797
 30
0.0
 40
0
 41
0
  0
VERTEX
  8
0
 10
7.29167
 20
5.72917
 30
0.0
 40
0
 41
0
  0
VERTEX
  8
0
 10
8.15717
 20
5.43935
 30
0.0
 40
0
 41
0
  0
SEQEND
 8
0
  0
POLYLINE
  8
0
 62
     94
 66
     1
 10
0
 20
0
 30
0.0
 70
     1
 40
12
 41
12
  0
VERTEX
  8
0
 10
8.15717
 20
5.43935
 30
0.0
 40
0.166667
 41
0.166667
  0
VERTEX
  8
0
 10
8.13249
 20
5.42096
 30
0.0
 40
0.166667
 41
0.166667
  0
VERTEX
  8
0
 10
8.05274
 20
5.37354
 30
0.0
 40
0.166667
 41
0.166667
  0
VERTEX
  8
0
 10
7.93099
 20
5.31799
 30
0.0
 40
0.166667
 41
0.166667
  0
VERTEX
  8
0
 10
7.79486
 20
5.27317
 30
0.0
 40
0.166667
 41
0.166667
  0
VERTEX
  8
0
 10
7.64725
 20
5.23964
 30
0.0
 40
0.166667
 41
0.166667
  0
VERTEX
  8
0
 10
7.49104
 20
5.21793
 30
0.0
 40
0.166667
 41
0.166667
  0
VERTEX
  8
0
 10
7.32915
 20
5.20865
 30
0.0
 40
0.166667
 41
0.166667
  0
VERTEX
  8
0
 10
7.16444
 20
5.21218
 30
0.0
 40
0.166667
 41
0.166667
  0
VERTEX
  8
0
 10
7.04075
 20
5.22325
 30
0.0
 40
0.166667
 41
0.166667
  0
VERTEX
  8
0
 10
6.99989
 20
5.22917
 30
0.0
 40
0.166667
 41
0.166667
  0
VERTEX
  8
0
 10
6.96035
 20
5.23497
 30
0.0
 40
0.166667
 41
0.166667
  0
VERTEX
  8
0
 10
6.84283
 20
5.25911
 30
0.0
 40
0.166667
 41
0.166667
  0
VERTEX
  8
0
 10
6.70014
 20
5.3004
 30
0.0
 40
0.166667
 41
0.166667
  0
VERTEX
  8
0
 10
6.57368
 20
5.35183
 30
0.0
 40
0.166667
 41
0.166667
  0
VERTEX
  8
0
 10
6.46528
 20
5.41211
 30
0.0
 40
0.166667
 41
0.166667
  0
VERTEX
  8
0
 10
6.37685
 20
5.48004
 30
0.0
 40
0.166667
 41
0.166667
  0
VERTEX
  8
0
 10
6.31028
 20
5.55442
 30
0.0
 40
0.166667
 41
0.166667
  0
VERTEX
  8
0
 10
6.26747
 20
5.634
 30
0.0
 40
0.166667
 41
0.166667
  0
VERTEX
  8
0
 10
6.25119
 20
5.69656
 30
0.0
 40
0.166667
 41
0.166667
  0
VERTEX
  8
0
 10
6.25028
 20
5.71756
 30
0.0
 40
0.166667
 41
0.166667
  0
VERTEX
  8
0
 10
6.24935
 20
5.73839
 30
0.0
 40
0.166667
 41
0.166667
  0
VERTEX
  8
0
 10
6.25999
 20
5.80149
 30
0.0
 40
0.166667
 41
0.166667
  0
VERTEX
  8
0
 10
6.29568
 20
5.88194
 30
0.0
 40
0.166667
 41
0.166667
  0
VERTEX
  8
0
 10
6.35558
 20
5.95774
 30
0.0
 40
0.166667
 41
0.166667
  0
VERTEX
  8
0
 10
6.43782
 20
6.02756
 30
0.0
 40
0.166667
 41
0.166667
  0
VERTEX
  8
0
 10
6.54075
 20
6.09022
 30
0.0
 40
0.166667
 41
0.166667
  0
VERTEX
  8
0
 10
6.66249
 20
6.14437
 30
0.0
 40
0.166667
 41
0.166667
  0
VERTEX
  8
0
 10
6.80138
 20
6.18881
 30
0.0
 40
0.166667
 41
0.166667
  0
VERTEX
  8
0
 10
6.91672
 20
6.21556
 30
0.0
 40
0.166667
 41
0.166667
  0
VERTEX
  8
0
 10
6.95557
 20
6.22217
 30
0.0
 40
0.166667
 41
0.166667
  0
VERTEX
  8
0
 10
6.99599
 20
6.22906
 30
0.0
 40
0.166667
 41
0.166667
  0
VERTEX
  8
0
 10
7.11843
 20
6.24283
 30
0.0
 40
0.166667
 41
0.166667
  0
VERTEX
  8
0
 10
7.28267
 20
6.25006
 30
0.0
 40
0.166667
 41
0.166667
  0
VERTEX
  8
0
 10
7.44526
 20
6.24436
 30
0.0
 40
0.166667
 41
0.166667
  0
VERTEX
  8
0
 10
7.60325
 20
6.22618
 30
0.0
 40
0.166667
 41
0.166667
  0
VERTEX
  8
0
 10
7.75369
 20
6.19601
 30
0.0
 40
0.166667
 41
0.166667
  0
VERTEX
  8
0
 10
7.89367
 20
6.15429
 30
0.0
 40
0.166667
 41
0.166667
  0
VERTEX
  8
0
 10
8.02024
 20
6.10146
 30
0.0
 40
0.166667
 41
0.166667
  0
VERTEX
  8
0
 10
8.10417
 20
6.05583
 30
0.0
 40
0.166667
 41
0.166667
  0
VERTEX
  8
0
 10
8.13043
 20
6.03797
 30
0.0
 40
0.166667
 41
0.166667
  0
VERTEX
  8
0
 10
7.29167
 20
5.72917
 30
0.0
 40
0.166667
 41
0.166667
  0
VERTEX
  8
0
 10
8.15717
 20
5.43935
 30
0.0
 40
0.166667
 41
0.166667
  0
SEQEND
 8
0
  0
POLYLINE
  8
0
 62
     2
 66
     1
 10
0
 20
0
 30
0.0
 70
     1
 40
0
 41
0
  0
VERTEX
  8
0
 10
6.71815
 20
8.33333
 30
0.0
 40
0
 41
0
  0
VERTEX
  8
0
 10
7.86518
 20
8.33333
 30
0.0
 40
0
 41
0
  0
VERTEX
  8
0
 10
7.88878
 20
8.33333
 30
0.0
 40
0
 41
0
  0
VERTEX
  8
0
 10
7.95975
 20
8.32514
 30
0.0
 40
0
 41
0
  0
VERTEX
  8
0
 10
8.04769
 20
8.3016
 30
0.0
 40
0
 41
0
  0
VERTEX
  8
0
 10
8.12722
 20
8.26426
 30
0.0
 40
0
 41
0
  0
VERTEX
  8
0
 10
8.1965
 20
8.21479
 30
0.0
 40
0
 41
0
  0
VERTEX
  8
0
 10
8.25358
 20
8.15479
 30
0.0
 40
0
 41
0
  0
VERTEX
  8
0
 10
8.2966
 20
8.08583
 30
0.0
 40
0
 41
0
  0
VERTEX
  8
0
 10
8.32383
 20
8.0096
 30
0.0
 40
0
 41
0
  0
VERTEX
  8
0
 10
8.33333
 20
7.94808
 30
0.0
 40
0
 41
0
  0
VERTEX
  8
0
 10
8.33333
 20
7.92757
 30
0.0
 40
0
 41
0
  0
VERTEX
  8
0
 10
8.33333
 20
7.69743
 30
0.0
 40
0
 41
0
  0
VERTEX
  8
0
 10
8.33333
 20
7.67697
 30
0.0
 40
0
 41
0
  0
VERTEX
  8
0
 10
8.32383
 20
7.61546
 30
0.0
 40
0
 41
0
  0
VERTEX
  8
0
 10
8.2966
 20
7.53922
 30
0.0
 40
0
 41
0
  0
VERTEX
  8
0
 10
8.25358
 20
7.47026
 30
0.0
 40
0
 41
0
  0
VERTEX
  8
0
 10
8.1965
 20
7.41026
 30
0.0
 40
0
 41
0
  0
VERTEX
  8
0
 10
8.12722
 20
7.36079
 30
0.0
 40
0
 41
0
  0
VERTEX
  8
0
 10
8.04769
 20
7.32346
 30
0.0
 40
0
 41
0
  0
VERTEX
  8
0
 10
7.95975
 20
7.29992
 30
0.0
 40
0
 41
0
  0
VERTEX
  8
0
 10
7.88878
 20
7.29167
 30
0.0
 40
0
 41
0
  0
VERTEX
  8
0
 10
7.86518
 20
7.29167
 30
0.0
 40
0
 41
0
  0
VERTEX
  8
0
 10
6.71815
 20
7.29167
 30
0.0
 40
0
 41
0
  0
VERTEX
  8
0
 10
6.6945
 20
7.29167
 30
0.0
 40
0
 41
0
  0
VERTEX
  8
0
 10
6.62354
 20
7.29992
 30
0.0
 40
0
 41
0
  0
VERTEX
  8
0
 10
6.5356
 20
7.32346
 30
0.0
 40
0
 41
0
  0
VERTEX
  8
0
 10
6.45606
 20
7.36079
 30
0.0
 40
0
 41
0
  0
VERTEX
  8
0
 10
6.38683
 20
7.41026
 30
0.0
 40
0
 41
0
  0
VERTEX
  8
0
 10
6.32969
 20
7.47026
 30
0.0
 40
0
 41
0
  0
VERTEX
  8
0
 10
6.28668
 20
7.53922
 30
0.0
 40
0
 41
0
  0
VERTEX
  8
0
 10
6.25944
 20
7.61546
 30
0.0
 40
0
 41
0
  0
VERTEX
  8
0
 10
6.25
 20
7.67697
 30
0.0
 40
0
 41
0
  0
VERTEX
  8
0
 10
6.25
 20
7.69743
 30
0.0
 40
0
 41
0
  0
VERTEX
  8
0
 10
6.25
 20
7.92757
 30
0.0
 40
0
 41
0
  0
VERTEX
  8
0
 10
6.25
 20
7.94808
 30
0.0
 40
0
 41
0
  0
VERTEX
  8
0
 10
6.25944
 20
8.0096
 30
0.0
 40
0
 41
0
  0
VERTEX
  8
0
 10
6.28668
 20
8.08583
 30
0.0
 40
0
 41
0
  0
VERTEX
  8
0
 10
6.32969
 20
8.15479
 30
0.0
 40
0
 41
0
  0
VERTEX
  8
0
 10
6.38683
 20
8.21479
 30
0.0
 40
0
 41
0
  0
VERTEX
  8
0
 10
6.45606
 20
8.26426
 30
0.0
 40
0
 41
0
  0
VERTEX
  8
0
 10
6.5356
 20
8.3016
 30
0.0
 40
0
 41
0
  0
VERTEX
  8
0
 10
6.62354
 20
8.32514
 30
0.0
 40
0
 41
0
  0
VERTEX
  8
0
 10
6.6945
 20
8.33333
 30
0.0
 40
0
 41
0
  0
VERTEX
  8
0
 10
6.71815
 20
8.33333
 30
0.0
 40
0
 41
0
  0
SEQEND
 8
0
  0
POLYLINE
  8
0
 62
     94
 66
     1
 10
0
 20
0
 30
0.0
 70
     1
 40
12
 41
12
  0
VERTEX
  8
0
 10
6.71815
 20
8.33333
 30
0.0
 40
0.166667
 41
0.166667
  0
VERTEX
  8
0
 10
7.86518
 20
8.33333
 30
0.0
 40
0.166667
 41
0.166667
  0
VERTEX
  8
0
 10
7.88878
 20
8.33333
 30
0.0
 40
0.166667
 41
0.166667
  0
VERTEX
  8
0
 10
7.95975
 20
8.32514
 30
0.0
 40
0.166667
 41
0.166667
  0
VERTEX
  8
0
 10
8.04769
 20
8.3016
 30
0.0
 40
0.166667
 41
0.166667
  0
VERTEX
  8
0
 10
8.12722
 20
8.26426
 30
0.0
 40
0.166667
 41
0.166667
  0
VERTEX
  8
0
 10
8.1965
 20
8.21479
 30
0.0
 40
0.166667
 41
0.166667
  0
VERTEX
  8
0
 10
8.25358
 20
8.15479
 30
0.0
 40
0.166667
 41
0.166667
  0
VERTEX
  8
0
 10
8.2966
 20
8.08583
 30
0.0
 40
0.166667
 41
0.166667
  0
VERTEX
  8
0
 10
8.32383
 20
8.0096
 30
0.0
 40
0.166667
 41
0.166667
  0
VERTEX
  8
0
 10
8.33333
 20
7.94808
 30
0.0
 40
0.166667
 41
0.166667
  0
VERTEX
  8
0
 10
8.33333
 20
7.92757
 30
0.0
 40
0.166667
 41
0.166667
  0
VERTEX
  8
0
 10
8.33333
 20
7.69743
 30
0.0
 40
0.166667
 41
0.166667
  0
VERTEX
  8
0
 10
8.33333
 20
7.67697
 30
0.0
 40
0.166667
 41
0.166667
  0
VERTEX
  8
0
 10
8.32383
 20
7.61546
 30
0.0
 40
0.166667
 41
0.166667
  0
VERTEX
  8
0
 10
8.2966
 20
7.53922
 30
0.0
 40
0.166667
 41
0.166667
  0
VERTEX
  8
0
 10
8.25358
 20
7.47026
 30
0.0
 40
0.166667
 41
0.166667
  0
VERTEX
  8
0
 10
8.1965
 20
7.41026
 30
0.0
 40
0.166667
 41
0.166667
  0
VERTEX
  8
0
 10
8.12722
 20
7.36079
 30
0.0
 40
0.166667
 41
0.166667
  0
VERTEX
  8
0
 10
8.04769
 20
7.32346
 30
0.0
 40
0.166667
 41
0.166667
  0
VERTEX
  8
0
 10
7.95975
 20
7.29992
 30
0.0
 40
0.166667
 41
0.166667
  0
VERTEX
  8
0
 10
7.88878
 20
7.29167
 30
0.0
 40
0.166667
 41
0.166667
  0
VERTEX
  8
0
 10
7.86518
 20
7.29167
 30
0.0
 40
0.166667
 41
0.166667
  0
VERTEX
  8
0
 10
6.71815
 20
7.29167
 30
0.0
 40
0.166667
 41
0.166667
  0
VERTEX
  8
0
 10
6.6945
 20
7.29167
 30
0.0
 40
0.166667
 41
0.166667
  0
VERTEX
  8
0
 10
6.62354
 20
7.29992
 30
0.0
 40
0.166667
 41
0.166667
  0
VERTEX
  8
0
 10
6.5356
 20
7.32346
 30
0.0
 40
0.166667
 41
0.166667
  0
VERTEX
  8
0
 10
6.45606
 20
7.36079
 30
0.0
 40
0.166667
 41
0.166667
  0
VERTEX
  8
0
 10
6.38683
 20
7.41026
 30
0.0
 40
0.166667
 41
0.166667
  0
VERTEX
  8
0
 10
6.32969
 20
7.47026
 30
0.0
 40
0.166667
 41
0.166667
  0
VERTEX
  8
0
 10
6.28668
 20
7.53922
 30
0.0
 40
0.166667
 41
0.166667
  0
VERTEX
  8
0
 10
6.25944
 20
7.61546
 30
0.0
 40
0.166667
 41
0.166667
  0
VERTEX
  8
0
 10
6.25
 20
7.67697
 30
0.0
 40
0.166667
 41
0.166667
  0
VERTEX
  8
0
 10
6.25
 20
7.69743
 30
0.0
 40
0.166667
 41
0.166667
  0
VERTEX
  8
0
 10
6.25
 20
7.92757
 30
0.0
 40
0.166667
 41
0.166667
  0
VERTEX
  8
0
 10
6.25
 20
7.94808
 30
0.0
 40
0.166667
 41
0.166667
  0
VERTEX
  8
0
 10
6.25944
 20
8.0096
 30
0.0
 40
0.166667
 41
0.166667
  0
VERTEX
  8
0
 10
6.28668
 20
8.08583
 30
0.0
 40
0.166667
 41
0.166667
  0
VERTEX
  8
0
 10
6.32969
 20
8.15479
 30
0.0
 40
0.166667
 41
0.166667
  0
VERTEX
  8
0
 10
6.38683
 20
8.21479
 30
0.0
 40
0.166667
 41
0.166667
  0
VERTEX
  8
0
 10
6.45606
 20
8.26426
 30
0.0
 40
0.166667
 41
0.166667
  0
VERTEX
  8
0
 10
6.5356
 20
8.3016
 30
0.0
 40
0.166667
 41
0.166667
  0
VERTEX
  8
0
 10
6.62354
 20
8.32514
 30
0.0
 40
0.166667
 41
0.166667
  0
VERTEX
  8
0
 10
6.6945
 20
8.33333
 30
0.0
 40
0.166667
 41
0.166667
  0
VERTEX
  8
0
 10
6.71815
 20
8.33333
 30
0.0
 40
0.166667
 41
0.166667
  0
SEQEND
 8
0
  0
POLYLINE
  8
0
 62
     0
 66
     1
 10
0
 20
0
 30
0.0
 40
7.5
 41
7.5
  0
VERTEX
  8
0
 10
1.04167
 20
4.16667
 30
0.0
 40
0.104167
 41
0.104167
  0
VERTEX
  8
0
 10
2.08333
 20
3.125
 30
0.0
 40
0.104167
 41
0.104167
  0
VERTEX
  8
0
 10
3.125
 20
4.16667
 30
0.0
 40
0.104167
 41
0.104167
  0
VERTEX
  8
0
 10
4.16667
 20
3.125
 30
0.0
 40
0.104167
 41
0.104167
  0
SEQEND
 8
0
  0
POLYLINE
  8
0
 62
     0
 66
     1
 10
0
 20
0
 30
0.0
 40
7.5
 41
7.5
  0
VERTEX
  8
0
 10
5.20833
 20
4.16667
 30
0.0
 40
0.104167
 41
0.104167
  0
VERTEX
  8
0
 10
5.20833
 20
4.16667
 30
0.0
 40
0.104167
 41
0.104167
  0
VERTEX
  8
0
 10
5.20856
 20
4.155
 30
0.0
 40
0.104167
 41
0.104167
  0
VERTEX
  8
0
 10
5.21035
 20
4.1219
 30
0.0
 40
0.104167
 41
0.104167
  0
VERTEX
  8
0
 10
5.21517
 20
4.07058
 30
0.0
 40
0.104167
 41
0.104167
  0
VERTEX
  8
0
 10
5.22461
 20
4.0039
 30
0.0
 40
0.104167
 41
0.104167
  0
VERTEX
  8
0
 10
5.24007
 20
3.92507
 30
0.0
 40
0.104167
 41
0.104167
  0
VERTEX
  8
0
 10
5.26324
 20
3.83708
 30
0.0
 40
0.104167
 41
0.104167
  0
VERTEX
  8
0
 10
5.29551
 20
3.743
 30
0.0
 40
0.104167
 41
0.104167
  0
VERTEX
  8
0
 10
5.33854
 20
3.64583
 30
0.0
 40
0.104167
 41
0.104167
  0
VERTEX
  8
0
 10
5.39372
 20
3.54872
 30
0.0
 40
0.104167
 41
0.104167
  0
VERTEX
  8
0
 10
5.46262
 20
3.45458
 30
0.0
 40
0.104167
 41
0.104167
  0
VERTEX
  8
0
 10
5.54682
 20
3.36664
 30
0.0
 40
0.104167
 41
0.104167
  0
VERTEX
  8
0
 10
5.64779
 20
3.28776
 30
0.0
 40
0.104167
 41
0.104167
  0
VERTEX
  8
0
 10
5.76704
 20
3.22114
 30
0.0
 40
0.104167
 41
0.104167
  0
VERTEX
  8
0
 10
5.90614
 20
3.16976
 30
0.0
 40
0.104167
 41
0.104167
  0
VERTEX
  8
0
 10
6.06663
 20
3.13672
 30
0.0
 40
0.104167
 41
0.104167
  0
VERTEX
  8
0
 10
6.20415
 20
3.125
 30
0.0
 40
0.104167
 41
0.104167
  0
VERTEX
  8
0
 10
6.25
 20
3.125
 30
0.0
 40
0.104167
 41
0.104167
  0
VERTEX
  8
0
 10
6.29297
 20
3.125
 30
0.0
 40
0.104167
 41
0.104167
  0
VERTEX
  8
0
 10
6.42188
 20
3.13672
 30
0.0
 40
0.104167
 41
0.104167
  0
VERTEX
  8
0
 10
6.55111
 20
3.16976
 30
0.0
 40
0.104167
 41
0.104167
  0
VERTEX
  8
0
 10
6.64367
 20
3.22114
 30
0.0
 40
0.104167
 41
0.104167
  0
VERTEX
  8
0
 10
6.70574
 20
3.28776
 30
0.0
 40
0.104167
 41
0.104167
  0
VERTEX
  8
0
 10
6.74333
 20
3.36664
 30
0.0
 40
0.104167
 41
0.104167
  0
VERTEX
  8
0
 10
6.76269
 20
3.45458
 30
0.0
 40
0.104167
 41
0.104167
  0
VERTEX
  8
0
 10
6.76981
 20
3.54872
 30
0.0
 40
0.104167
 41
0.104167
  0
VERTEX
  8
0
 10
6.77083
 20
3.64583
 30
0.0
 40
0.104167
 41
0.104167
  0
VERTEX
  8
0
 10
6.77181
 20
3.743
 30
0.0
 40
0.104167
 41
0.104167
  0
VERTEX
  8
0
 10
6.77897
 20
3.83708
 30
0.0
 40
0.104167
 41
0.104167
  0
VERTEX
  8
0
 10
6.79829
 20
3.92507
 30
0.0
 40
0.104167
 41
0.104167
  0
VERTEX
  8
0
 10
6.83594
 20
4.0039
 30
0.0
 40
0.104167
 41
0.104167
  0
VERTEX
  8
0
 10
6.89794
 20
4.07058
 30
0.0
 40
0.104167
 41
0.104167
  0
VERTEX
  8
0
 10
6.99056
 20
4.1219
 30
0.0
 40
0.104167
 41
0.104167
  0
VERTEX
  8
0
 10
7.11974
 20
4.155
 30
0.0
 40
0.104167
 41
0.104167
  0
VERTEX
  8
0
 10
7.24864
 20
4.16667
 30
0.0
 40
0.104167
 41
0.104167
  0
VERTEX
  8
0
 10
7.29167
 20
4.16667
 30
0.0
 40
0.104167
 41
0.104167
  0
VERTEX
  8
0
 10
7.33746
 20
4.16667
 30
0.0
 40
0.104167
 41
0.104167
  0
VERTEX
  8
0
 10
7.47499
 20
4.155
 30
0.0
 40
0.104167
 41
0.104167
  0
VERTEX
  8
0
 10
7.63547
 20
4.1219
 30
0.0
 40
0.104167
 41
0.104167
  0
VERTEX
  8
0
 10
7.77458
 20
4.07058
 30
0.0
 40
0.104167
 41
0.104167
  0
VERTEX
  8
0
 10
7.89388
 20
4.0039
 30
0.0
 40
0.104167
 41
0.104167
  0
VERTEX
  8
0
 10
7.99479
 20
3.92507
 30
0.0
 40
0.104167
 41
0.104167
  0
VERTEX
  8
0
 10
8.079
 20
3.83708
 30
0.0
 40
0.104167
 41
0.104167
  0
VERTEX
  8
0
 10
8.14789
 20
3.743
 30
0.0
 40
0.104167
 41
0.104167
  0
VERTEX
  8
0
 10
8.20313
 20
3.64583
 30
0.0
 40
0.104167
 41
0.104167
  0
VERTEX
  8
0
 10
8.2461
 20
3.54872
 30
0.0
 40
0.104167
 41
0.104167
  0
VERTEX
  8
0
 10
8.27838
 20
3.45458
 30
0.0
 40
0.104167
 41
0.104167
  0
VERTEX
  8
0
 10
8.30154
 20
3.36664
 30
0.0
 40
0.104167
 41
0.104167
  0
VERTEX
  8
0
 10
8.31706
 20
3.28776
 30
0.0
 40
0.104167
 41
0.104167
  0
VERTEX
  8
0
 10
8.32644
 20
3.22114
 30
0.0
 40
0.104167
 41
0.104167
  0
VERTEX
  8
0
 10
8.33128
 20
3.16976
 30
0.0
 40
0.104167
 41
0.104167
  0
VERTEX
  8
0
 10
8.33306
 20
3.13672
 30
0.0
 40
0.104167
 41
0.104167
  0
VERTEX
  8
0
 10
8.33333
 20
3.125
 30
0.0
 40
0.104167
 41
0.104167
  0
VERTEX
  8
0
 10
8.33333
 20
3.125
 30
0.0
 40
0.104167
 41
0.104167
  0
SEQEND
 8
0
  0
POLYLINE
  8
0
 62
     2
 66
     1
 10
0
 20
0
 30
0.0
 70
     1
 40
0
 41
0
  0
VERTEX
  8
0
 10
2.55035
 20
1.15478
 30
0.0
 40
0
 41
0
  0
VERTEX
  8
0
 10
2.07807
 20
1.23953
 30
0.0
 40
0
 41
0
  0
VERTEX
  8
0
 10
1.7405
 20
0.898492
 30
0.0
 40
0
 41
0
  0
VERTEX
  8
0
 10
1.67518
 20
1.37386
 30
0.0
 40
0
 41
0
  0
VERTEX
  8
0
 10
1.24653
 20
1.58951
 30
0.0
 40
0
 41
0
  0
VERTEX
  8
0
 10
1.67844
 20
1.79856
 30
0.0
 40
0
 41
0
  0
VERTEX
  8
0
 10
1.75103
 20
2.27285
 30
0.0
 40
0
 41
0
  0
VERTEX
  8
0
 10
2.08333
 20
1.92671
 30
0.0
 40
0
 41
0
  0
VERTEX
  8
0
 10
2.55686
 20
2.00418
 30
0.0
 40
0
 41
0
  0
VERTEX
  8
0
 10
2.33035
 20
1.58122
 30
0.0
 40
0
 41
0
  0
VERTEX
  8
0
 10
2.55035
 20
1.15478
 30
0.0
 40
0
 41
0
  0
SEQEND
 8
0
  0
POLYLINE
  8
0
 62
     94
 66
     1
 10
0
 20
0
 30
0.0
 70
     1
 40
7.5
 41
7.5
  0
VERTEX
  8
0
 10
2.55035
 20
1.15478
 30
0.0
 40
0.104167
 41
0.104167
  0
VERTEX
  8
0
 10
2.07807
 20
1.23953
 30
0.0
 40
0.104167
 41
0.104167
  0
VERTEX
  8
0
 10
1.7405
 20
0.898492
 30
0.0
 40
0.104167
 41
0.104167
  0
VERTEX
  8
0
 10
1.67518
 20
1.37386
 30
0.0
 40
0.104167
 41
0.104167
  0
VERTEX
  8
0
 10
1.24653
 20
1.58951
 30
0.0
 40
0.104167
 41
0.104167
  0
VERTEX
  8
0
 10
1.67844
 20
1.79856
 30
0.0
 40
0.104167
 41
0.104167
  0
VERTEX
  8
0
 10
1.75103
 20
2.27285
 30
0.0
 40
0.104167
 41
0.104167
  0
VERTEX
  8
0
 10
2.08333
 20
1.92671
 30
0.0
 40
0.104167
 41
0.104167
  0
VERTEX
  8
0
 10
2.55686
 20
2.00418
 30
0.0
 40
0.104167
 41
0.104167
  0
VERTEX
  8
0
 10
2.33035
 20
1.58122
 30
0.0
 40
0.104167
 41
0.104167
  0
VERTEX
  8
0
 10
2.55035
 20
1.15478
 30
0.0
 40
0.104167
 41
0.104167
  0
SEQEND
 8
0
  0
POLYLINE
  8
0
 62
     2
 66
     1
 10
0
 20
0
 30
0.0
 70
     1
 40
0
 41
0
  0
VERTEX
  8
0
 10
4.63368
 20
1.12359
 30
0.0
 40
0
 41
0
  0
VERTEX
  8
0
 10
4.1614
 20
1.20833
 30
0.0
 40
0
 41
0
  0
VERTEX
  8
0
 10
3.82383
 20
0.867296
 30
0.0
 40
0
 41
0
  0
VERTEX
  8
0
 10
3.75851
 20
1.34267
 30
0.0
 40
0
 41
0
  0
VERTEX
  8
0
 10
3.32986
 20
1.55826
 30
0.0
 40
0
 41
0
  0
VERTEX
  8
0
 10
3.76178
 20
1.76736
 30
0.0
 40
0
 41
0
  0
VERTEX
  8
0
 10
3.83436
 20
2.24164
 30
0.0
 40
0
 41
0
  0
VERTEX
  8
0
 10
4.16667
 20
1.89551
 30
0.0
 40
0
 41
0
  0
VERTEX
  8
0
 10
4.64019
 20
1.97299
 30
0.0
 40
0
 41
0
  0
VERTEX
  8
0
 10
4.41368
 20
1.54997
 30
0.0
 40
0
 41
0
  0
VERTEX
  8
0
 10
4.63368
 20
1.12359
 30
0.0
 40
0
 41
0
  0
SEQEND
 8
0
  0
POLYLINE
  8
0
 62
     94
 66
     1
 10
0
 20
0
 30
0.0
 70
     1
 40
7.5
 41
7.5
  0
VERTEX
  8
0
 10
4.63368
 20
1.12359
 30
0.0
 40
0.104167
 41
0.104167
  0
VERTEX
  8
0
 10
4.1614
 20
1.20833
 30
0.0
 40
0.104167
 41
0.104167
  0
VERTEX
  8
0
 10
3.82383
 20
0.867296
 30
0.0
 40
0.104167
 41
0.104167
  0
VERTEX
  8
0
 10
3.75851
 20
1.34267
 30
0.0
 40
0.104167
 41
0.104167
  0
VERTEX
  8
0
 10
3.32986
 20
1.55826
 30
0.0
 40
0.104167
 41
0.104167
  0
VERTEX
  8
0
 10
3.76178
 20
1.76736
 30
0.0
 40
0.104167
 41
0.104167
  0
VERTEX
  8
0
 10
3.83436
 20
2.24164
 30
0.0
 40
0.104167
 41
0.104167
  0
VERTEX
  8
0
 10
4.16667
 20
1.89551
 30
0.0
 40
0.104167
 41
0.104167
  0
VERTEX
  8
0
 10
4.64019
 20
1.97299
 30
0.0
 40
0.104167
 41
0.104167
  0
VERTEX
  8
0
 10
4.41368
 20
1.54997
 30
0.0
 40
0.104167
 41
0.104167
  0
VERTEX
  8
0
 10
4.63368
 20
1.12359
 30
0.0
 40
0.104167
 41
0.104167
  0
SEQEND
 8
0
  0
ENDSEC
  0
EOF
