0
SECTION
2
HEADER
9
$ACADVER
1
AC1014
9
$ACADMAINTVER
70
8
9
$DWGCODEPAGE
3
ANSI_1252
9
$INSBASE
10
0.0
20
0.0
30
0.0
9
$EXTMIN
10
1.000000E+20
20
1.000000E+20
30
1.000000E+20
9
$EXTMAX
10
-1.000000E+20
20
-1.000000E+20
30
-1.000000E+20
9
$LIMMIN
10
0.0
20
0.0
9
$LIMMAX
10
12.0
20
9.0
9
$ORTHOMODE
70
0
9
$REGENMODE
70
1
9
$FILLMODE
70
1
9
$QTEXTMODE
70
0
9
$MIRRTEXT
70
1
9
$DRAGMODE
70
2
9
$LTSCALE
40
1.0
9
$OSMODE
70
0
9
$ATTMODE
70
1
9
$TEXTSIZE
40
0.2
9
$TRACEWID
40
0.05
9
$TEXTSTYLE
7
STANDARD
9
$CLAYER
8
0
9
$CELTYPE
6
BYLAYER
9
$CECOLOR
62
256
9
$CELTSCALE
40
1.0
9
$DELOBJ
70
1
9
$DISPSILH
70
0
9
$DIMSCALE
40
1.0
9
$DIMASZ
40
0.18
9
$DIMEXO
40
0.0625
9
$DIMDLI
40
0.38
9
$DIMRND
40
0.0
9
$DIMDLE
40
0.0
9
$DIMEXE
40
0.18
9
$DIMTP
40
0.0
9
$DIMTM
40
0.0
9
$DIMTXT
40
0.18
9
$DIMCEN
40
0.09
9
$DIMTSZ
40
0.0
9
$DIMTOL
70
0
9
$DIMLIM
70
0
9
$DIMTIH
70
1
9
$DIMTOH
70
1
9
$DIMSE1
70
0
9
$DIMSE2
70
0
9
$DIMTAD
70
0
9
$DIMZIN
70
0
9
$DIMBLK
1

9
$DIMASO
70
1
9
$DIMSHO
70
1
9
$DIMPOST
1

9
$DIMAPOST
1

9
$DIMALT
70
0
9
$DIMALTD
70
2
9
$DIMALTF
40
25.4
9
$DIMLFAC
40
1.0
9
$DIMTOFL
70
0
9
$DIMTVP
40
0.0
9
$DIMTIX
70
0
9
$DIMSOXD
70
0
9
$DIMSAH
70
0
9
$DIMBLK1
1

9
$DIMBLK2
1

9
$DIMSTYLE
2
STANDARD
9
$DIMCLRD
70
0
9
$DIMCLRE
70
0
9
$DIMCLRT
70
0
9
$DIMTFAC
40
1.0
9
$DIMGAP
40
0.09
9
$DIMJUST
70
0
9
$DIMSD1
70
0
9
$DIMSD2
70
0
9
$DIMTOLJ
70
1
9
$DIMTZIN
70
0
9
$DIMALTZ
70
0
9
$DIMALTTZ
70
0
9
$DIMFIT
70
3
9
$DIMUPT
70
0
9
$DIMUNIT
70
2
9
$DIMDEC
70
4
9
$DIMTDEC
70
4
9
$DIMALTU
70
2
9
$DIMALTTD
70
2
9
$DIMTXSTY
7
STANDARD
9
$DIMAUNIT
70
0
9
$LUNITS
70
2
9
$LUPREC
70
4
9
$SKETCHINC
40
0.1
9
$FILLETRAD
40
0.5
9
$AUNITS
70
0
9
$AUPREC
70
0
9
$MENU
1
.
9
$ELEVATION
40
0.0
9
$PELEVATION
40
0.0
9
$THICKNESS
40
0.0
9
$LIMCHECK
70
0
9
$BLIPMODE
70
0
9
$CHAMFERA
40
0.5
9
$CHAMFERB
40
0.5
9
$CHAMFERC
40
1.0
9
$CHAMFERD
40
0.0
9
$SKPOLY
70
1
9
$TDCREATE
40
2451008.519973958
9
$TDUPDATE
40
2451008.523538426
9
$TDINDWG
40
0.0024055556
9
$TDUSRTIMER
40
0.0024055556
9
$USRTIMER
70
1
9
$ANGBASE
50
0.0
9
$ANGDIR
70
0
9
$PDMODE
70
0
9
$PDSIZE
40
0.0
9
$PLINEWID
40
0.0
9
$COORDS
70
1
9
$SPLFRAME
70
0
9
$SPLINETYPE
70
6
9
$SPLINESEGS
70
8
9
$ATTDIA
70
0
9
$ATTREQ
70
1
9
$HANDLING
70
1
9
$HANDSEED
5
5B
9
$SURFTAB1
70
6
9
$SURFTAB2
70
6
9
$SURFTYPE
70
6
9
$SURFU
70
6
9
$SURFV
70
6
9
$UCSNAME
2

9
$UCSORG
10
0.0
20
0.0
30
0.0
9
$UCSXDIR
10
1.0
20
0.0
30
0.0
9
$UCSYDIR
10
0.0
20
1.0
30
0.0
9
$PUCSNAME
2

9
$PUCSORG
10
0.0
20
0.0
30
0.0
9
$PUCSXDIR
10
1.0
20
0.0
30
0.0
9
$PUCSYDIR
10
0.0
20
1.0
30
0.0
9
$USERI1
70
0
9
$USERI2
70
0
9
$USERI3
70
0
9
$USERI4
70
0
9
$USERI5
70
0
9
$USERR1
40
0.0
9
$USERR2
40
0.0
9
$USERR3
40
0.0
9
$USERR4
40
0.0
9
$USERR5
40
0.0
9
$WORLDVIEW
70
1
9
$SHADEDGE
70
3
9
$SHADEDIF
70
70
9
$TILEMODE
70
1
9
$MAXACTVP
70
48
9
$PINSBASE
10
0.0
20
0.0
30
0.0
9
$PLIMCHECK
70
0
9
$PEXTMIN
10
1.000000E+20
20
1.000000E+20
30
1.000000E+20
9
$PEXTMAX
10
-1.000000E+20
20
-1.000000E+20
30
-1.000000E+20
9
$PLIMMIN
10
0.0
20
0.0
9
$PLIMMAX
10
12.0
20
9.0
9
$UNITMODE
70
0
9
$VISRETAIN
70
1
9
$PLINEGEN
70
0
9
$PSLTSCALE
70
1
9
$TREEDEPTH
70
3020
9
$PICKSTYLE
70
1
9
$CMLSTYLE
2
STANDARD
9
$CMLJUST
70
0
9
$CMLSCALE
40
1.0
9
$PROXYGRAPHICS
70
1
9
$MEASUREMENT
70
0
0
ENDSEC
0
SECTION
2
CLASSES
0
ENDSEC
0
SECTION
2
TABLES
0
TABLE
2
VPORT
5
8
100
AcDbSymbolTable
70
3
0
VPORT
5
5A
100
AcDbSymbolTableRecord
100
AcDbViewportTableRecord
2
*ACTIVE
70
0
10
0.0
20
0.0
11
1.0
21
1.0
12
7.623626
22
4.5
13
0.0
23
0.0
14
0.5
24
0.5
15
0.5
25
0.5
16
0.0
26
0.0
36
1.0
17
0.0
27
0.0
37
0.0
40
9.0
41
1.694139
42
50.0
43
0.0
44
0.0
50
0.0
51
0.0
71
0
72
100
73
1
74
1
75
0
76
0
77
0
78
0
0
ENDTAB
0
TABLE
2
LTYPE
5
5
100
AcDbSymbolTable
70
1
0
LTYPE
5
13
100
AcDbSymbolTableRecord
100
AcDbLinetypeTableRecord
2
BYBLOCK
70
0
3

72
65
73
0
40
0.0
0
LTYPE
5
14
100
AcDbSymbolTableRecord
100
AcDbLinetypeTableRecord
2
BYLAYER
70
0
3

72
65
73
0
40
0.0
0
LTYPE
5
15
100
AcDbSymbolTableRecord
100
AcDbLinetypeTableRecord
2
CONTINUOUS
70
0
3
Solid line
72
65
73
0
40
0.0
0
ENDTAB
0
TABLE
2
LAYER
5
2
100
AcDbSymbolTable
70
10
0
LAYER
5
F
100
AcDbSymbolTableRecord
100
AcDbLayerTableRecord
2
0
70
0
62
7
6
CONTINUOUS
0
LAYER
5
4C
100
AcDbSymbolTableRecord
100
AcDbLayerTableRecord
2
FRAMES
70
0
62
2
6
CONTINUOUS
0
LAYER
5
4D
100
AcDbSymbolTableRecord
100
AcDbLayerTableRecord
2
JOINTS
70
0
62
2
6
CONTINUOUS
0
LAYER
5
4E
100
AcDbSymbolTableRecord
100
AcDbLayerTableRecord
2
SHELLS
70
0
62
1
6
CONTINUOUS
0
LAYER
5
4F
100
AcDbSymbolTableRecord
100
AcDbLayerTableRecord
2
GRIDS
70
0
62
8
6
CONTINUOUS
0
LAYER
5
50
100
AcDbSymbolTableRecord
100
AcDbLayerTableRecord
2
PLANES
70
0
62
5
6
CONTINUOUS
0
LAYER
5
51
100
AcDbSymbolTableRecord
100
AcDbLayerTableRecord
2
ASOLIDS
70
0
62
6
6
CONTINUOUS
0
LAYER
5
52
100
AcDbSymbolTableRecord
100
AcDbLayerTableRecord
2
SOLIDS
70
0
62
7
6
CONTINUOUS
0
LAYER
5
53
100
AcDbSymbolTableRecord
100
AcDbLayerTableRecord
2
TEXT
70
0
62
94
6
CONTINUOUS
0
LAYER
5
58
100
AcDbSymbolTableRecord
100
AcDbLayerTableRecord
2
NLLINKS
70
0
62
3
6
CONTINUOUS
0
ENDTAB
0
TABLE
2
STYLE
5
3
100
AcDbSymbolTable
70
1
0
STYLE
5
10
100
AcDbSymbolTableRecord
100
AcDbTextStyleTableRecord
2
STANDARD
70
0
40
0.0
41
1.0
50
0.0
71
0
42
0.2
3
txt
4

0
ENDTAB
0
TABLE
2
VIEW
5
6
100
AcDbSymbolTable
70
0
0
ENDTAB
0
TABLE
2
UCS
5
7
100
AcDbSymbolTable
70
0
0
ENDTAB
0
TABLE
2
APPID
5
9
100
AcDbSymbolTable
70
1
0
APPID
5
11
100
AcDbSymbolTableRecord
100
AcDbRegAppTableRecord
2
ACAD
70
0
0
ENDTAB
0
TABLE
2
DIMSTYLE
5
A
100
AcDbSymbolTable
70
1
0
DIMSTYLE
105
1D
100
AcDbSymbolTableRecord
100
AcDbDimStyleTableRecord
2
STANDARD
70
0
3

4

5

6

7

40
1.0
41
0.18
42
0.0625
43
0.38
44
0.18
45
0.0
46
0.0
47
0.0
48
0.0
140
0.18
141
0.09
142
0.0
143
25.4
144
1.0
145
0.0
146
1.0
147
0.09
71
0
72
0
73
1
74
1
75
0
76
0
77
0
78
0
170
0
171
2
172
0
173
0
174
0
175
0
176
0
177
0
178
0
270
2
271
4
272
4
273
2
274
2
340
10
275
0
280
0
281
0
282
0
283
1
284
0
285
0
286
0
287
3
288
0
0
ENDTAB
0
TABLE
2
BLOCK_RECORD
5
1
100
AcDbSymbolTable
70
0
0
BLOCK_RECORD
5
19
100
AcDbSymbolTableRecord
100
AcDbBlockTableRecord
2
*MODEL_SPACE
0
BLOCK_RECORD
5
16
100
AcDbSymbolTableRecord
100
AcDbBlockTableRecord
2
*PAPER_SPACE
0
ENDTAB
0
ENDSEC
0
SECTION
2
BLOCKS
0
BLOCK
5
1A
100
AcDbEntity
8
0
100
AcDbBlockBegin
2
*MODEL_SPACE
70
0
10
0.0
20
0.0
30
0.0
3
*MODEL_SPACE
1

0
ENDBLK
5
1B
100
AcDbEntity
8
0
100
AcDbBlockEnd
0
BLOCK
5
17
100
AcDbEntity
67
1
8
0
100
AcDbBlockBegin
2
*PAPER_SPACE
70
0
10
0.0
20
0.0
30
0.0
3
*PAPER_SPACE
1

0
ENDBLK
5
18
100
AcDbEntity
67
1
8
0
100
AcDbBlockEnd
0
ENDSEC
0
SECTION
2
ENTITIES
0
POLYLINE
5
B1
100
AcDbEntity
8
SOLIDS
100
AcDbPolygonMesh
66
1
10
0
20
0
30
0
70
16
71
6
72
3
0
VERTEX
5
B2
100
AcDbEntity
8
SOLIDS
100
AcDbVertex
100
AcDbPolygonMeshVertex
10
-144
20
-684
30
240
70
64
0
VERTEX
5
B3
100
AcDbEntity
8
SOLIDS
100
AcDbVertex
100
AcDbPolygonMeshVertex
10
-160
20
-720
30
0
70
64
0
VERTEX
5
B4
100
AcDbEntity
8
SOLIDS
100
AcDbVertex
100
AcDbPolygonMeshVertex
10
-160
20
-720
30
0
70
64
0
VERTEX
5
B5
100
AcDbEntity
8
SOLIDS
100
AcDbVertex
100
AcDbPolygonMeshVertex
10
-444
20
-684
30
240
70
64
0
VERTEX
5
B6
100
AcDbEntity
8
SOLIDS
100
AcDbVertex
100
AcDbPolygonMeshVertex
10
-480
20
-720
30
0
70
64
0
VERTEX
5
B7
100
AcDbEntity
8
SOLIDS
100
AcDbVertex
100
AcDbPolygonMeshVertex
10
-480
20
-720
30
0
70
64
0
VERTEX
5
B8
100
AcDbEntity
8
SOLIDS
100
AcDbVertex
100
AcDbPolygonMeshVertex
10
-444
20
-432
30
240
70
64
0
VERTEX
5
B9
100
AcDbEntity
8
SOLIDS
100
AcDbVertex
100
AcDbPolygonMeshVertex
10
-480
20
-432
30
0
70
64
0
VERTEX
5
B10
100
AcDbEntity
8
SOLIDS
100
AcDbVertex
100
AcDbPolygonMeshVertex
10
-480
20
-720
30
0
70
64
0
VERTEX
5
B11
100
AcDbEntity
8
SOLIDS
100
AcDbVertex
100
AcDbPolygonMeshVertex
10
-144
20
-432
30
240
70
64
0
VERTEX
5
B12
100
AcDbEntity
8
SOLIDS
100
AcDbVertex
100
AcDbPolygonMeshVertex
10
-160
20
-432
30
0
70
64
0
VERTEX
5
B13
100
AcDbEntity
8
SOLIDS
100
AcDbVertex
100
AcDbPolygonMeshVertex
10
-160
20
-720
30
0
70
64
0
VERTEX
5
B14
100
AcDbEntity
8
SOLIDS
100
AcDbVertex
100
AcDbPolygonMeshVertex
10
-144
20
-432
30
240
70
64
0
VERTEX
5
B15
100
AcDbEntity
8
SOLIDS
100
AcDbVertex
100
AcDbPolygonMeshVertex
10
-144
20
-432
30
240
70
64
0
VERTEX
5
B16
100
AcDbEntity
8
SOLIDS
100
AcDbVertex
100
AcDbPolygonMeshVertex
10
-144
20
-684
30
240
70
64
0
VERTEX
5
B17
100
AcDbEntity
8
SOLIDS
100
AcDbVertex
100
AcDbPolygonMeshVertex
10
-444
20
-432
30
240
70
64
0
VERTEX
5
B18
100
AcDbEntity
8
SOLIDS
100
AcDbVertex
100
AcDbPolygonMeshVertex
10
-444
20
-432
30
240
70
64
0
VERTEX
5
B19
100
AcDbEntity
8
SOLIDS
100
AcDbVertex
100
AcDbPolygonMeshVertex
10
-444
20
-684
30
240
70
64
0
SEQEND
5
B20
100
AcDbEntity
8
SOLIDS
0
POLYLINE
5
B21
100
AcDbEntity
8
SOLIDS
100
AcDbPolygonMesh
66
1
10
0
20
0
30
0
70
16
71
6
72
3
0
VERTEX
5
B22
100
AcDbEntity
8
SOLIDS
100
AcDbVertex
100
AcDbPolygonMeshVertex
10
-128
20
-648
30
480
70
64
0
VERTEX
5
B23
100
AcDbEntity
8
SOLIDS
100
AcDbVertex
100
AcDbPolygonMeshVertex
10
-144
20
-684
30
240
70
64
0
VERTEX
5
B24
100
AcDbEntity
8
SOLIDS
100
AcDbVertex
100
AcDbPolygonMeshVertex
10
-144
20
-684
30
240
70
64
0
VERTEX
5
B25
100
AcDbEntity
8
SOLIDS
100
AcDbVertex
100
AcDbPolygonMeshVertex
10
-408
20
-648
30
480
70
64
0
VERTEX
5
B26
100
AcDbEntity
8
SOLIDS
100
AcDbVertex
100
AcDbPolygonMeshVertex
10
-444
20
-684
30
240
70
64
0
VERTEX
5
B27
100
AcDbEntity
8
SOLIDS
100
AcDbVertex
100
AcDbPolygonMeshVertex
10
-444
20
-684
30
240
70
64
0
VERTEX
5
B28
100
AcDbEntity
8
SOLIDS
100
AcDbVertex
100
AcDbPolygonMeshVertex
10
-408
20
-432
30
480
70
64
0
VERTEX
5
B29
100
AcDbEntity
8
SOLIDS
100
AcDbVertex
100
AcDbPolygonMeshVertex
10
-444
20
-432
30
240
70
64
0
VERTEX
5
B30
100
AcDbEntity
8
SOLIDS
100
AcDbVertex
100
AcDbPolygonMeshVertex
10
-444
20
-684
30
240
70
64
0
VERTEX
5
B31
100
AcDbEntity
8
SOLIDS
100
AcDbVertex
100
AcDbPolygonMeshVertex
10
-128
20
-432
30
480
70
64
0
VERTEX
5
B32
100
AcDbEntity
8
SOLIDS
100
AcDbVertex
100
AcDbPolygonMeshVertex
10
-144
20
-432
30
240
70
64
0
VERTEX
5
B33
100
AcDbEntity
8
SOLIDS
100
AcDbVertex
100
AcDbPolygonMeshVertex
10
-144
20
-684
30
240
70
64
0
VERTEX
5
B34
100
AcDbEntity
8
SOLIDS
100
AcDbVertex
100
AcDbPolygonMeshVertex
10
-128
20
-432
30
480
70
64
0
VERTEX
5
B35
100
AcDbEntity
8
SOLIDS
100
AcDbVertex
100
AcDbPolygonMeshVertex
10
-128
20
-432
30
480
70
64
0
VERTEX
5
B36
100
AcDbEntity
8
SOLIDS
100
AcDbVertex
100
AcDbPolygonMeshVertex
10
-128
20
-648
30
480
70
64
0
VERTEX
5
B37
100
AcDbEntity
8
SOLIDS
100
AcDbVertex
100
AcDbPolygonMeshVertex
10
-408
20
-432
30
480
70
64
0
VERTEX
5
B38
100
AcDbEntity
8
SOLIDS
100
AcDbVertex
100
AcDbPolygonMeshVertex
10
-408
20
-432
30
480
70
64
0
VERTEX
5
B39
100
AcDbEntity
8
SOLIDS
100
AcDbVertex
100
AcDbPolygonMeshVertex
10
-408
20
-648
30
480
70
64
0
SEQEND
5
B40
100
AcDbEntity
8
SOLIDS
0
POLYLINE
5
B41
100
AcDbEntity
8
SOLIDS
100
AcDbPolygonMesh
66
1
10
0
20
0
30
0
70
16
71
6
72
3
0
VERTEX
5
B42
100
AcDbEntity
8
SOLIDS
100
AcDbVertex
100
AcDbPolygonMeshVertex
10
-112
20
-612
30
720
70
64
0
VERTEX
5
B43
100
AcDbEntity
8
SOLIDS
100
AcDbVertex
100
AcDbPolygonMeshVertex
10
-128
20
-648
30
480
70
64
0
VERTEX
5
B44
100
AcDbEntity
8
SOLIDS
100
AcDbVertex
100
AcDbPolygonMeshVertex
10
-128
20
-648
30
480
70
64
0
VERTEX
5
B45
100
AcDbEntity
8
SOLIDS
100
AcDbVertex
100
AcDbPolygonMeshVertex
10
-372
20
-612
30
720
70
64
0
VERTEX
5
B46
100
AcDbEntity
8
SOLIDS
100
AcDbVertex
100
AcDbPolygonMeshVertex
10
-408
20
-648
30
480
70
64
0
VERTEX
5
B47
100
AcDbEntity
8
SOLIDS
100
AcDbVertex
100
AcDbPolygonMeshVertex
10
-408
20
-648
30
480
70
64
0
VERTEX
5
B48
100
AcDbEntity
8
SOLIDS
100
AcDbVertex
100
AcDbPolygonMeshVertex
10
-372
20
-432
30
720
70
64
0
VERTEX
5
B49
100
AcDbEntity
8
SOLIDS
100
AcDbVertex
100
AcDbPolygonMeshVertex
10
-408
20
-432
30
480
70
64
0
VERTEX
5
B50
100
AcDbEntity
8
SOLIDS
100
AcDbVertex
100
AcDbPolygonMeshVertex
10
-408
20
-648
30
480
70
64
0
VERTEX
5
B51
100
AcDbEntity
8
SOLIDS
100
AcDbVertex
100
AcDbPolygonMeshVertex
10
-112
20
-432
30
720
70
64
0
VERTEX
5
B52
100
AcDbEntity
8
SOLIDS
100
AcDbVertex
100
AcDbPolygonMeshVertex
10
-128
20
-432
30
480
70
64
0
VERTEX
5
B53
100
AcDbEntity
8
SOLIDS
100
AcDbVertex
100
AcDbPolygonMeshVertex
10
-128
20
-648
30
480
70
64
0
VERTEX
5
B54
100
AcDbEntity
8
SOLIDS
100
AcDbVertex
100
AcDbPolygonMeshVertex
10
-112
20
-432
30
720
70
64
0
VERTEX
5
B55
100
AcDbEntity
8
SOLIDS
100
AcDbVertex
100
AcDbPolygonMeshVertex
10
-112
20
-432
30
720
70
64
0
VERTEX
5
B56
100
AcDbEntity
8
SOLIDS
100
AcDbVertex
100
AcDbPolygonMeshVertex
10
-112
20
-612
30
720
70
64
0
VERTEX
5
B57
100
AcDbEntity
8
SOLIDS
100
AcDbVertex
100
AcDbPolygonMeshVertex
10
-372
20
-432
30
720
70
64
0
VERTEX
5
B58
100
AcDbEntity
8
SOLIDS
100
AcDbVertex
100
AcDbPolygonMeshVertex
10
-372
20
-432
30
720
70
64
0
VERTEX
5
B59
100
AcDbEntity
8
SOLIDS
100
AcDbVertex
100
AcDbPolygonMeshVertex
10
-372
20
-612
30
720
70
64
0
SEQEND
5
B60
100
AcDbEntity
8
SOLIDS
0
POLYLINE
5
B61
100
AcDbEntity
8
SOLIDS
100
AcDbPolygonMesh
66
1
10
0
20
0
30
0
70
16
71
6
72
3
0
VERTEX
5
B62
100
AcDbEntity
8
SOLIDS
100
AcDbVertex
100
AcDbPolygonMeshVertex
10
-96
20
-576
30
960
70
64
0
VERTEX
5
B63
100
AcDbEntity
8
SOLIDS
100
AcDbVertex
100
AcDbPolygonMeshVertex
10
-112
20
-612
30
720
70
64
0
VERTEX
5
B64
100
AcDbEntity
8
SOLIDS
100
AcDbVertex
100
AcDbPolygonMeshVertex
10
-112
20
-612
30
720
70
64
0
VERTEX
5
B65
100
AcDbEntity
8
SOLIDS
100
AcDbVertex
100
AcDbPolygonMeshVertex
10
-336
20
-576
30
960
70
64
0
VERTEX
5
B66
100
AcDbEntity
8
SOLIDS
100
AcDbVertex
100
AcDbPolygonMeshVertex
10
-372
20
-612
30
720
70
64
0
VERTEX
5
B67
100
AcDbEntity
8
SOLIDS
100
AcDbVertex
100
AcDbPolygonMeshVertex
10
-372
20
-612
30
720
70
64
0
VERTEX
5
B68
100
AcDbEntity
8
SOLIDS
100
AcDbVertex
100
AcDbPolygonMeshVertex
10
-336
20
-432
30
960
70
64
0
VERTEX
5
B69
100
AcDbEntity
8
SOLIDS
100
AcDbVertex
100
AcDbPolygonMeshVertex
10
-372
20
-432
30
720
70
64
0
VERTEX
5
B70
100
AcDbEntity
8
SOLIDS
100
AcDbVertex
100
AcDbPolygonMeshVertex
10
-372
20
-612
30
720
70
64
0
VERTEX
5
B71
100
AcDbEntity
8
SOLIDS
100
AcDbVertex
100
AcDbPolygonMeshVertex
10
-96
20
-432
30
960
70
64
0
VERTEX
5
B72
100
AcDbEntity
8
SOLIDS
100
AcDbVertex
100
AcDbPolygonMeshVertex
10
-112
20
-432
30
720
70
64
0
VERTEX
5
B73
100
AcDbEntity
8
SOLIDS
100
AcDbVertex
100
AcDbPolygonMeshVertex
10
-112
20
-612
30
720
70
64
0
VERTEX
5
B74
100
AcDbEntity
8
SOLIDS
100
AcDbVertex
100
AcDbPolygonMeshVertex
10
-96
20
-432
30
960
70
64
0
VERTEX
5
B75
100
AcDbEntity
8
SOLIDS
100
AcDbVertex
100
AcDbPolygonMeshVertex
10
-96
20
-432
30
960
70
64
0
VERTEX
5
B76
100
AcDbEntity
8
SOLIDS
100
AcDbVertex
100
AcDbPolygonMeshVertex
10
-96
20
-576
30
960
70
64
0
VERTEX
5
B77
100
AcDbEntity
8
SOLIDS
100
AcDbVertex
100
AcDbPolygonMeshVertex
10
-336
20
-432
30
960
70
64
0
VERTEX
5
B78
100
AcDbEntity
8
SOLIDS
100
AcDbVertex
100
AcDbPolygonMeshVertex
10
-336
20
-432
30
960
70
64
0
VERTEX
5
B79
100
AcDbEntity
8
SOLIDS
100
AcDbVertex
100
AcDbPolygonMeshVertex
10
-336
20
-576
30
960
70
64
0
SEQEND
5
B80
100
AcDbEntity
8
SOLIDS
0
POLYLINE
5
B81
100
AcDbEntity
8
SOLIDS
100
AcDbPolygonMesh
66
1
10
0
20
0
30
0
70
16
71
6
72
3
0
VERTEX
5
B82
100
AcDbEntity
8
SOLIDS
100
AcDbVertex
100
AcDbPolygonMeshVertex
10
-144
20
-432
30
240
70
64
0
VERTEX
5
B83
100
AcDbEntity
8
SOLIDS
100
AcDbVertex
100
AcDbPolygonMeshVertex
10
-160
20
-432
30
0
70
64
0
VERTEX
5
B84
100
AcDbEntity
8
SOLIDS
100
AcDbVertex
100
AcDbPolygonMeshVertex
10
-160
20
-432
30
0
70
64
0
VERTEX
5
B85
100
AcDbEntity
8
SOLIDS
100
AcDbVertex
100
AcDbPolygonMeshVertex
10
-444
20
-432
30
240
70
64
0
VERTEX
5
B86
100
AcDbEntity
8
SOLIDS
100
AcDbVertex
100
AcDbPolygonMeshVertex
10
-480
20
-432
30
0
70
64
0
VERTEX
5
B87
100
AcDbEntity
8
SOLIDS
100
AcDbVertex
100
AcDbPolygonMeshVertex
10
-480
20
-432
30
0
70
64
0
VERTEX
5
B88
100
AcDbEntity
8
SOLIDS
100
AcDbVertex
100
AcDbPolygonMeshVertex
10
-444
20
-180
30
240
70
64
0
VERTEX
5
B89
100
AcDbEntity
8
SOLIDS
100
AcDbVertex
100
AcDbPolygonMeshVertex
10
-480
20
-144
30
0
70
64
0
VERTEX
5
B90
100
AcDbEntity
8
SOLIDS
100
AcDbVertex
100
AcDbPolygonMeshVertex
10
-480
20
-432
30
0
70
64
0
VERTEX
5
B91
100
AcDbEntity
8
SOLIDS
100
AcDbVertex
100
AcDbPolygonMeshVertex
10
-144
20
-180
30
240
70
64
0
VERTEX
5
B92
100
AcDbEntity
8
SOLIDS
100
AcDbVertex
100
AcDbPolygonMeshVertex
10
-160
20
-144
30
0
70
64
0
VERTEX
5
B93
100
AcDbEntity
8
SOLIDS
100
AcDbVertex
100
AcDbPolygonMeshVertex
10
-160
20
-432
30
0
70
64
0
VERTEX
5
B94
100
AcDbEntity
8
SOLIDS
100
AcDbVertex
100
AcDbPolygonMeshVertex
10
-144
20
-180
30
240
70
64
0
VERTEX
5
B95
100
AcDbEntity
8
SOLIDS
100
AcDbVertex
100
AcDbPolygonMeshVertex
10
-144
20
-180
30
240
70
64
0
VERTEX
5
B96
100
AcDbEntity
8
SOLIDS
100
AcDbVertex
100
AcDbPolygonMeshVertex
10
-144
20
-432
30
240
70
64
0
VERTEX
5
B97
100
AcDbEntity
8
SOLIDS
100
AcDbVertex
100
AcDbPolygonMeshVertex
10
-444
20
-180
30
240
70
64
0
VERTEX
5
B98
100
AcDbEntity
8
SOLIDS
100
AcDbVertex
100
AcDbPolygonMeshVertex
10
-444
20
-180
30
240
70
64
0
VERTEX
5
B99
100
AcDbEntity
8
SOLIDS
100
AcDbVertex
100
AcDbPolygonMeshVertex
10
-444
20
-432
30
240
70
64
0
SEQEND
5
B100
100
AcDbEntity
8
SOLIDS
0
POLYLINE
5
B101
100
AcDbEntity
8
SOLIDS
100
AcDbPolygonMesh
66
1
10
0
20
0
30
0
70
16
71
6
72
3
0
VERTEX
5
B102
100
AcDbEntity
8
SOLIDS
100
AcDbVertex
100
AcDbPolygonMeshVertex
10
-128
20
-432
30
480
70
64
0
VERTEX
5
B103
100
AcDbEntity
8
SOLIDS
100
AcDbVertex
100
AcDbPolygonMeshVertex
10
-144
20
-432
30
240
70
64
0
VERTEX
5
B104
100
AcDbEntity
8
SOLIDS
100
AcDbVertex
100
AcDbPolygonMeshVertex
10
-144
20
-432
30
240
70
64
0
VERTEX
5
B105
100
AcDbEntity
8
SOLIDS
100
AcDbVertex
100
AcDbPolygonMeshVertex
10
-408
20
-432
30
480
70
64
0
VERTEX
5
B106
100
AcDbEntity
8
SOLIDS
100
AcDbVertex
100
AcDbPolygonMeshVertex
10
-444
20
-432
30
240
70
64
0
VERTEX
5
B107
100
AcDbEntity
8
SOLIDS
100
AcDbVertex
100
AcDbPolygonMeshVertex
10
-444
20
-432
30
240
70
64
0
VERTEX
5
B108
100
AcDbEntity
8
SOLIDS
100
AcDbVertex
100
AcDbPolygonMeshVertex
10
-408
20
-216
30
480
70
64
0
VERTEX
5
B109
100
AcDbEntity
8
SOLIDS
100
AcDbVertex
100
AcDbPolygonMeshVertex
10
-444
20
-180
30
240
70
64
0
VERTEX
5
B110
100
AcDbEntity
8
SOLIDS
100
AcDbVertex
100
AcDbPolygonMeshVertex
10
-444
20
-432
30
240
70
64
0
VERTEX
5
B111
100
AcDbEntity
8
SOLIDS
100
AcDbVertex
100
AcDbPolygonMeshVertex
10
-128
20
-216
30
480
70
64
0
VERTEX
5
B112
100
AcDbEntity
8
SOLIDS
100
AcDbVertex
100
AcDbPolygonMeshVertex
10
-144
20
-180
30
240
70
64
0
VERTEX
5
B113
100
AcDbEntity
8
SOLIDS
100
AcDbVertex
100
AcDbPolygonMeshVertex
10
-144
20
-432
30
240
70
64
0
VERTEX
5
B114
100
AcDbEntity
8
SOLIDS
100
AcDbVertex
100
AcDbPolygonMeshVertex
10
-128
20
-216
30
480
70
64
0
VERTEX
5
B115
100
AcDbEntity
8
SOLIDS
100
AcDbVertex
100
AcDbPolygonMeshVertex
10
-128
20
-216
30
480
70
64
0
VERTEX
5
B116
100
AcDbEntity
8
SOLIDS
100
AcDbVertex
100
AcDbPolygonMeshVertex
10
-128
20
-432
30
480
70
64
0
VERTEX
5
B117
100
AcDbEntity
8
SOLIDS
100
AcDbVertex
100
AcDbPolygonMeshVertex
10
-408
20
-216
30
480
70
64
0
VERTEX
5
B118
100
AcDbEntity
8
SOLIDS
100
AcDbVertex
100
AcDbPolygonMeshVertex
10
-408
20
-216
30
480
70
64
0
VERTEX
5
B119
100
AcDbEntity
8
SOLIDS
100
AcDbVertex
100
AcDbPolygonMeshVertex
10
-408
20
-432
30
480
70
64
0
SEQEND
5
B120
100
AcDbEntity
8
SOLIDS
0
POLYLINE
5
B121
100
AcDbEntity
8
SOLIDS
100
AcDbPolygonMesh
66
1
10
0
20
0
30
0
70
16
71
6
72
3
0
VERTEX
5
B122
100
AcDbEntity
8
SOLIDS
100
AcDbVertex
100
AcDbPolygonMeshVertex
10
-112
20
-432
30
720
70
64
0
VERTEX
5
B123
100
AcDbEntity
8
SOLIDS
100
AcDbVertex
100
AcDbPolygonMeshVertex
10
-128
20
-432
30
480
70
64
0
VERTEX
5
B124
100
AcDbEntity
8
SOLIDS
100
AcDbVertex
100
AcDbPolygonMeshVertex
10
-128
20
-432
30
480
70
64
0
VERTEX
5
B125
100
AcDbEntity
8
SOLIDS
100
AcDbVertex
100
AcDbPolygonMeshVertex
10
-372
20
-432
30
720
70
64
0
VERTEX
5
B126
100
AcDbEntity
8
SOLIDS
100
AcDbVertex
100
AcDbPolygonMeshVertex
10
-408
20
-432
30
480
70
64
0
VERTEX
5
B127
100
AcDbEntity
8
SOLIDS
100
AcDbVertex
100
AcDbPolygonMeshVertex
10
-408
20
-432
30
480
70
64
0
VERTEX
5
B128
100
AcDbEntity
8
SOLIDS
100
AcDbVertex
100
AcDbPolygonMeshVertex
10
-372
20
-252
30
720
70
64
0
VERTEX
5
B129
100
AcDbEntity
8
SOLIDS
100
AcDbVertex
100
AcDbPolygonMeshVertex
10
-408
20
-216
30
480
70
64
0
VERTEX
5
B130
100
AcDbEntity
8
SOLIDS
100
AcDbVertex
100
AcDbPolygonMeshVertex
10
-408
20
-432
30
480
70
64
0
VERTEX
5
B131
100
AcDbEntity
8
SOLIDS
100
AcDbVertex
100
AcDbPolygonMeshVertex
10
-112
20
-252
30
720
70
64
0
VERTEX
5
B132
100
AcDbEntity
8
SOLIDS
100
AcDbVertex
100
AcDbPolygonMeshVertex
10
-128
20
-216
30
480
70
64
0
VERTEX
5
B133
100
AcDbEntity
8
SOLIDS
100
AcDbVertex
100
AcDbPolygonMeshVertex
10
-128
20
-432
30
480
70
64
0
VERTEX
5
B134
100
AcDbEntity
8
SOLIDS
100
AcDbVertex
100
AcDbPolygonMeshVertex
10
-112
20
-252
30
720
70
64
0
VERTEX
5
B135
100
AcDbEntity
8
SOLIDS
100
AcDbVertex
100
AcDbPolygonMeshVertex
10
-112
20
-252
30
720
70
64
0
VERTEX
5
B136
100
AcDbEntity
8
SOLIDS
100
AcDbVertex
100
AcDbPolygonMeshVertex
10
-112
20
-432
30
720
70
64
0
VERTEX
5
B137
100
AcDbEntity
8
SOLIDS
100
AcDbVertex
100
AcDbPolygonMeshVertex
10
-372
20
-252
30
720
70
64
0
VERTEX
5
B138
100
AcDbEntity
8
SOLIDS
100
AcDbVertex
100
AcDbPolygonMeshVertex
10
-372
20
-252
30
720
70
64
0
VERTEX
5
B139
100
AcDbEntity
8
SOLIDS
100
AcDbVertex
100
AcDbPolygonMeshVertex
10
-372
20
-432
30
720
70
64
0
SEQEND
5
B140
100
AcDbEntity
8
SOLIDS
0
POLYLINE
5
B141
100
AcDbEntity
8
SOLIDS
100
AcDbPolygonMesh
66
1
10
0
20
0
30
0
70
16
71
6
72
3
0
VERTEX
5
B142
100
AcDbEntity
8
SOLIDS
100
AcDbVertex
100
AcDbPolygonMeshVertex
10
-96
20
-432
30
960
70
64
0
VERTEX
5
B143
100
AcDbEntity
8
SOLIDS
100
AcDbVertex
100
AcDbPolygonMeshVertex
10
-112
20
-432
30
720
70
64
0
VERTEX
5
B144
100
AcDbEntity
8
SOLIDS
100
AcDbVertex
100
AcDbPolygonMeshVertex
10
-112
20
-432
30
720
70
64
0
VERTEX
5
B145
100
AcDbEntity
8
SOLIDS
100
AcDbVertex
100
AcDbPolygonMeshVertex
10
-336
20
-432
30
960
70
64
0
VERTEX
5
B146
100
AcDbEntity
8
SOLIDS
100
AcDbVertex
100
AcDbPolygonMeshVertex
10
-372
20
-432
30
720
70
64
0
VERTEX
5
B147
100
AcDbEntity
8
SOLIDS
100
AcDbVertex
100
AcDbPolygonMeshVertex
10
-372
20
-432
30
720
70
64
0
VERTEX
5
B148
100
AcDbEntity
8
SOLIDS
100
AcDbVertex
100
AcDbPolygonMeshVertex
10
-336
20
-288
30
960
70
64
0
VERTEX
5
B149
100
AcDbEntity
8
SOLIDS
100
AcDbVertex
100
AcDbPolygonMeshVertex
10
-372
20
-252
30
720
70
64
0
VERTEX
5
B150
100
AcDbEntity
8
SOLIDS
100
AcDbVertex
100
AcDbPolygonMeshVertex
10
-372
20
-432
30
720
70
64
0
VERTEX
5
B151
100
AcDbEntity
8
SOLIDS
100
AcDbVertex
100
AcDbPolygonMeshVertex
10
-96
20
-288
30
960
70
64
0
VERTEX
5
B152
100
AcDbEntity
8
SOLIDS
100
AcDbVertex
100
AcDbPolygonMeshVertex
10
-112
20
-252
30
720
70
64
0
VERTEX
5
B153
100
AcDbEntity
8
SOLIDS
100
AcDbVertex
100
AcDbPolygonMeshVertex
10
-112
20
-432
30
720
70
64
0
VERTEX
5
B154
100
AcDbEntity
8
SOLIDS
100
AcDbVertex
100
AcDbPolygonMeshVertex
10
-96
20
-288
30
960
70
64
0
VERTEX
5
B155
100
AcDbEntity
8
SOLIDS
100
AcDbVertex
100
AcDbPolygonMeshVertex
10
-96
20
-288
30
960
70
64
0
VERTEX
5
B156
100
AcDbEntity
8
SOLIDS
100
AcDbVertex
100
AcDbPolygonMeshVertex
10
-96
20
-432
30
960
70
64
0
VERTEX
5
B157
100
AcDbEntity
8
SOLIDS
100
AcDbVertex
100
AcDbPolygonMeshVertex
10
-336
20
-288
30
960
70
64
0
VERTEX
5
B158
100
AcDbEntity
8
SOLIDS
100
AcDbVertex
100
AcDbPolygonMeshVertex
10
-336
20
-288
30
960
70
64
0
VERTEX
5
B159
100
AcDbEntity
8
SOLIDS
100
AcDbVertex
100
AcDbPolygonMeshVertex
10
-336
20
-432
30
960
70
64
0
SEQEND
5
B160
100
AcDbEntity
8
SOLIDS
0
POLYLINE
5
B161
100
AcDbEntity
8
SOLIDS
100
AcDbPolygonMesh
66
1
10
0
20
0
30
0
70
16
71
6
72
3
0
VERTEX
5
B162
100
AcDbEntity
8
SOLIDS
100
AcDbVertex
100
AcDbPolygonMeshVertex
10
-144
20
-180
30
240
70
64
0
VERTEX
5
B163
100
AcDbEntity
8
SOLIDS
100
AcDbVertex
100
AcDbPolygonMeshVertex
10
-160
20
-144
30
0
70
64
0
VERTEX
5
B164
100
AcDbEntity
8
SOLIDS
100
AcDbVertex
100
AcDbPolygonMeshVertex
10
-160
20
-144
30
0
70
64
0
VERTEX
5
B165
100
AcDbEntity
8
SOLIDS
100
AcDbVertex
100
AcDbPolygonMeshVertex
10
-444
20
-180
30
240
70
64
0
VERTEX
5
B166
100
AcDbEntity
8
SOLIDS
100
AcDbVertex
100
AcDbPolygonMeshVertex
10
-480
20
-144
30
0
70
64
0
VERTEX
5
B167
100
AcDbEntity
8
SOLIDS
100
AcDbVertex
100
AcDbPolygonMeshVertex
10
-480
20
-144
30
0
70
64
0
VERTEX
5
B168
100
AcDbEntity
8
SOLIDS
100
AcDbVertex
100
AcDbPolygonMeshVertex
10
-444
20
72
30
240
70
64
0
VERTEX
5
B169
100
AcDbEntity
8
SOLIDS
100
AcDbVertex
100
AcDbPolygonMeshVertex
10
-480
20
144
30
0
70
64
0
VERTEX
5
B170
100
AcDbEntity
8
SOLIDS
100
AcDbVertex
100
AcDbPolygonMeshVertex
10
-480
20
-144
30
0
70
64
0
VERTEX
5
B171
100
AcDbEntity
8
SOLIDS
100
AcDbVertex
100
AcDbPolygonMeshVertex
10
-144
20
72
30
240
70
64
0
VERTEX
5
B172
100
AcDbEntity
8
SOLIDS
100
AcDbVertex
100
AcDbPolygonMeshVertex
10
-160
20
144
30
0
70
64
0
VERTEX
5
B173
100
AcDbEntity
8
SOLIDS
100
AcDbVertex
100
AcDbPolygonMeshVertex
10
-160
20
-144
30
0
70
64
0
VERTEX
5
B174
100
AcDbEntity
8
SOLIDS
100
AcDbVertex
100
AcDbPolygonMeshVertex
10
-144
20
72
30
240
70
64
0
VERTEX
5
B175
100
AcDbEntity
8
SOLIDS
100
AcDbVertex
100
AcDbPolygonMeshVertex
10
-144
20
72
30
240
70
64
0
VERTEX
5
B176
100
AcDbEntity
8
SOLIDS
100
AcDbVertex
100
AcDbPolygonMeshVertex
10
-144
20
-180
30
240
70
64
0
VERTEX
5
B177
100
AcDbEntity
8
SOLIDS
100
AcDbVertex
100
AcDbPolygonMeshVertex
10
-444
20
72
30
240
70
64
0
VERTEX
5
B178
100
AcDbEntity
8
SOLIDS
100
AcDbVertex
100
AcDbPolygonMeshVertex
10
-444
20
72
30
240
70
64
0
VERTEX
5
B179
100
AcDbEntity
8
SOLIDS
100
AcDbVertex
100
AcDbPolygonMeshVertex
10
-444
20
-180
30
240
70
64
0
SEQEND
5
B180
100
AcDbEntity
8
SOLIDS
0
POLYLINE
5
B181
100
AcDbEntity
8
SOLIDS
100
AcDbPolygonMesh
66
1
10
0
20
0
30
0
70
16
71
6
72
3
0
VERTEX
5
B182
100
AcDbEntity
8
SOLIDS
100
AcDbVertex
100
AcDbPolygonMeshVertex
10
-128
20
-216
30
480
70
64
0
VERTEX
5
B183
100
AcDbEntity
8
SOLIDS
100
AcDbVertex
100
AcDbPolygonMeshVertex
10
-144
20
-180
30
240
70
64
0
VERTEX
5
B184
100
AcDbEntity
8
SOLIDS
100
AcDbVertex
100
AcDbPolygonMeshVertex
10
-144
20
-180
30
240
70
64
0
VERTEX
5
B185
100
AcDbEntity
8
SOLIDS
100
AcDbVertex
100
AcDbPolygonMeshVertex
10
-408
20
-216
30
480
70
64
0
VERTEX
5
B186
100
AcDbEntity
8
SOLIDS
100
AcDbVertex
100
AcDbPolygonMeshVertex
10
-444
20
-180
30
240
70
64
0
VERTEX
5
B187
100
AcDbEntity
8
SOLIDS
100
AcDbVertex
100
AcDbPolygonMeshVertex
10
-444
20
-180
30
240
70
64
0
VERTEX
5
B188
100
AcDbEntity
8
SOLIDS
100
AcDbVertex
100
AcDbPolygonMeshVertex
10
-408
20
0
30
480
70
64
0
VERTEX
5
B189
100
AcDbEntity
8
SOLIDS
100
AcDbVertex
100
AcDbPolygonMeshVertex
10
-444
20
72
30
240
70
64
0
VERTEX
5
B190
100
AcDbEntity
8
SOLIDS
100
AcDbVertex
100
AcDbPolygonMeshVertex
10
-444
20
-180
30
240
70
64
0
VERTEX
5
B191
100
AcDbEntity
8
SOLIDS
100
AcDbVertex
100
AcDbPolygonMeshVertex
10
-128
20
0
30
480
70
64
0
VERTEX
5
B192
100
AcDbEntity
8
SOLIDS
100
AcDbVertex
100
AcDbPolygonMeshVertex
10
-144
20
72
30
240
70
64
0
VERTEX
5
B193
100
AcDbEntity
8
SOLIDS
100
AcDbVertex
100
AcDbPolygonMeshVertex
10
-144
20
-180
30
240
70
64
0
VERTEX
5
B194
100
AcDbEntity
8
SOLIDS
100
AcDbVertex
100
AcDbPolygonMeshVertex
10
-128
20
0
30
480
70
64
0
VERTEX
5
B195
100
AcDbEntity
8
SOLIDS
100
AcDbVertex
100
AcDbPolygonMeshVertex
10
-128
20
0
30
480
70
64
0
VERTEX
5
B196
100
AcDbEntity
8
SOLIDS
100
AcDbVertex
100
AcDbPolygonMeshVertex
10
-128
20
-216
30
480
70
64
0
VERTEX
5
B197
100
AcDbEntity
8
SOLIDS
100
AcDbVertex
100
AcDbPolygonMeshVertex
10
-408
20
0
30
480
70
64
0
VERTEX
5
B198
100
AcDbEntity
8
SOLIDS
100
AcDbVertex
100
AcDbPolygonMeshVertex
10
-408
20
0
30
480
70
64
0
VERTEX
5
B199
100
AcDbEntity
8
SOLIDS
100
AcDbVertex
100
AcDbPolygonMeshVertex
10
-408
20
-216
30
480
70
64
0
SEQEND
5
B200
100
AcDbEntity
8
SOLIDS
0
POLYLINE
5
B201
100
AcDbEntity
8
SOLIDS
100
AcDbPolygonMesh
66
1
10
0
20
0
30
0
70
16
71
6
72
3
0
VERTEX
5
B202
100
AcDbEntity
8
SOLIDS
100
AcDbVertex
100
AcDbPolygonMeshVertex
10
-112
20
-252
30
720
70
64
0
VERTEX
5
B203
100
AcDbEntity
8
SOLIDS
100
AcDbVertex
100
AcDbPolygonMeshVertex
10
-128
20
-216
30
480
70
64
0
VERTEX
5
B204
100
AcDbEntity
8
SOLIDS
100
AcDbVertex
100
AcDbPolygonMeshVertex
10
-128
20
-216
30
480
70
64
0
VERTEX
5
B205
100
AcDbEntity
8
SOLIDS
100
AcDbVertex
100
AcDbPolygonMeshVertex
10
-372
20
-252
30
720
70
64
0
VERTEX
5
B206
100
AcDbEntity
8
SOLIDS
100
AcDbVertex
100
AcDbPolygonMeshVertex
10
-408
20
-216
30
480
70
64
0
VERTEX
5
B207
100
AcDbEntity
8
SOLIDS
100
AcDbVertex
100
AcDbPolygonMeshVertex
10
-408
20
-216
30
480
70
64
0
VERTEX
5
B208
100
AcDbEntity
8
SOLIDS
100
AcDbVertex
100
AcDbPolygonMeshVertex
10
-372
20
-72
30
720
70
64
0
VERTEX
5
B209
100
AcDbEntity
8
SOLIDS
100
AcDbVertex
100
AcDbPolygonMeshVertex
10
-408
20
0
30
480
70
64
0
VERTEX
5
B210
100
AcDbEntity
8
SOLIDS
100
AcDbVertex
100
AcDbPolygonMeshVertex
10
-408
20
-216
30
480
70
64
0
VERTEX
5
B211
100
AcDbEntity
8
SOLIDS
100
AcDbVertex
100
AcDbPolygonMeshVertex
10
-112
20
-72
30
720
70
64
0
VERTEX
5
B212
100
AcDbEntity
8
SOLIDS
100
AcDbVertex
100
AcDbPolygonMeshVertex
10
-128
20
0
30
480
70
64
0
VERTEX
5
B213
100
AcDbEntity
8
SOLIDS
100
AcDbVertex
100
AcDbPolygonMeshVertex
10
-128
20
-216
30
480
70
64
0
VERTEX
5
B214
100
AcDbEntity
8
SOLIDS
100
AcDbVertex
100
AcDbPolygonMeshVertex
10
-112
20
-72
30
720
70
64
0
VERTEX
5
B215
100
AcDbEntity
8
SOLIDS
100
AcDbVertex
100
AcDbPolygonMeshVertex
10
-112
20
-72
30
720
70
64
0
VERTEX
5
B216
100
AcDbEntity
8
SOLIDS
100
AcDbVertex
100
AcDbPolygonMeshVertex
10
-112
20
-252
30
720
70
64
0
VERTEX
5
B217
100
AcDbEntity
8
SOLIDS
100
AcDbVertex
100
AcDbPolygonMeshVertex
10
-372
20
-72
30
720
70
64
0
VERTEX
5
B218
100
AcDbEntity
8
SOLIDS
100
AcDbVertex
100
AcDbPolygonMeshVertex
10
-372
20
-72
30
720
70
64
0
VERTEX
5
B219
100
AcDbEntity
8
SOLIDS
100
AcDbVertex
100
AcDbPolygonMeshVertex
10
-372
20
-252
30
720
70
64
0
SEQEND
5
B220
100
AcDbEntity
8
SOLIDS
0
POLYLINE
5
B221
100
AcDbEntity
8
SOLIDS
100
AcDbPolygonMesh
66
1
10
0
20
0
30
0
70
16
71
6
72
3
0
VERTEX
5
B222
100
AcDbEntity
8
SOLIDS
100
AcDbVertex
100
AcDbPolygonMeshVertex
10
-96
20
-288
30
960
70
64
0
VERTEX
5
B223
100
AcDbEntity
8
SOLIDS
100
AcDbVertex
100
AcDbPolygonMeshVertex
10
-112
20
-252
30
720
70
64
0
VERTEX
5
B224
100
AcDbEntity
8
SOLIDS
100
AcDbVertex
100
AcDbPolygonMeshVertex
10
-112
20
-252
30
720
70
64
0
VERTEX
5
B225
100
AcDbEntity
8
SOLIDS
100
AcDbVertex
100
AcDbPolygonMeshVertex
10
-336
20
-288
30
960
70
64
0
VERTEX
5
B226
100
AcDbEntity
8
SOLIDS
100
AcDbVertex
100
AcDbPolygonMeshVertex
10
-372
20
-252
30
720
70
64
0
VERTEX
5
B227
100
AcDbEntity
8
SOLIDS
100
AcDbVertex
100
AcDbPolygonMeshVertex
10
-372
20
-252
30
720
70
64
0
VERTEX
5
B228
100
AcDbEntity
8
SOLIDS
100
AcDbVertex
100
AcDbPolygonMeshVertex
10
-336
20
-144
30
960
70
64
0
VERTEX
5
B229
100
AcDbEntity
8
SOLIDS
100
AcDbVertex
100
AcDbPolygonMeshVertex
10
-372
20
-72
30
720
70
64
0
VERTEX
5
B230
100
AcDbEntity
8
SOLIDS
100
AcDbVertex
100
AcDbPolygonMeshVertex
10
-372
20
-252
30
720
70
64
0
VERTEX
5
B231
100
AcDbEntity
8
SOLIDS
100
AcDbVertex
100
AcDbPolygonMeshVertex
10
-96
20
-144
30
960
70
64
0
VERTEX
5
B232
100
AcDbEntity
8
SOLIDS
100
AcDbVertex
100
AcDbPolygonMeshVertex
10
-112
20
-72
30
720
70
64
0
VERTEX
5
B233
100
AcDbEntity
8
SOLIDS
100
AcDbVertex
100
AcDbPolygonMeshVertex
10
-112
20
-252
30
720
70
64
0
VERTEX
5
B234
100
AcDbEntity
8
SOLIDS
100
AcDbVertex
100
AcDbPolygonMeshVertex
10
-96
20
-144
30
960
70
64
0
VERTEX
5
B235
100
AcDbEntity
8
SOLIDS
100
AcDbVertex
100
AcDbPolygonMeshVertex
10
-96
20
-144
30
960
70
64
0
VERTEX
5
B236
100
AcDbEntity
8
SOLIDS
100
AcDbVertex
100
AcDbPolygonMeshVertex
10
-96
20
-288
30
960
70
64
0
VERTEX
5
B237
100
AcDbEntity
8
SOLIDS
100
AcDbVertex
100
AcDbPolygonMeshVertex
10
-336
20
-144
30
960
70
64
0
VERTEX
5
B238
100
AcDbEntity
8
SOLIDS
100
AcDbVertex
100
AcDbPolygonMeshVertex
10
-336
20
-144
30
960
70
64
0
VERTEX
5
B239
100
AcDbEntity
8
SOLIDS
100
AcDbVertex
100
AcDbPolygonMeshVertex
10
-336
20
-288
30
960
70
64
0
SEQEND
5
B240
100
AcDbEntity
8
SOLIDS
0
POLYLINE
5
B241
100
AcDbEntity
8
SOLIDS
100
AcDbPolygonMesh
66
1
10
0
20
0
30
0
70
16
71
6
72
3
0
VERTEX
5
B242
100
AcDbEntity
8
SOLIDS
100
AcDbVertex
100
AcDbPolygonMeshVertex
10
-144
20
72
30
240
70
64
0
VERTEX
5
B243
100
AcDbEntity
8
SOLIDS
100
AcDbVertex
100
AcDbPolygonMeshVertex
10
-160
20
144
30
0
70
64
0
VERTEX
5
B244
100
AcDbEntity
8
SOLIDS
100
AcDbVertex
100
AcDbPolygonMeshVertex
10
-160
20
144
30
0
70
64
0
VERTEX
5
B245
100
AcDbEntity
8
SOLIDS
100
AcDbVertex
100
AcDbPolygonMeshVertex
10
-444
20
72
30
240
70
64
0
VERTEX
5
B246
100
AcDbEntity
8
SOLIDS
100
AcDbVertex
100
AcDbPolygonMeshVertex
10
-480
20
144
30
0
70
64
0
VERTEX
5
B247
100
AcDbEntity
8
SOLIDS
100
AcDbVertex
100
AcDbPolygonMeshVertex
10
-480
20
144
30
0
70
64
0
VERTEX
5
B248
100
AcDbEntity
8
SOLIDS
100
AcDbVertex
100
AcDbPolygonMeshVertex
10
-444
20
324
30
240
70
64
0
VERTEX
5
B249
100
AcDbEntity
8
SOLIDS
100
AcDbVertex
100
AcDbPolygonMeshVertex
10
-480
20
432
30
0
70
64
0
VERTEX
5
B250
100
AcDbEntity
8
SOLIDS
100
AcDbVertex
100
AcDbPolygonMeshVertex
10
-480
20
144
30
0
70
64
0
VERTEX
5
B251
100
AcDbEntity
8
SOLIDS
100
AcDbVertex
100
AcDbPolygonMeshVertex
10
-144
20
324
30
240
70
64
0
VERTEX
5
B252
100
AcDbEntity
8
SOLIDS
100
AcDbVertex
100
AcDbPolygonMeshVertex
10
-160
20
432
30
0
70
64
0
VERTEX
5
B253
100
AcDbEntity
8
SOLIDS
100
AcDbVertex
100
AcDbPolygonMeshVertex
10
-160
20
144
30
0
70
64
0
VERTEX
5
B254
100
AcDbEntity
8
SOLIDS
100
AcDbVertex
100
AcDbPolygonMeshVertex
10
-144
20
324
30
240
70
64
0
VERTEX
5
B255
100
AcDbEntity
8
SOLIDS
100
AcDbVertex
100
AcDbPolygonMeshVertex
10
-144
20
324
30
240
70
64
0
VERTEX
5
B256
100
AcDbEntity
8
SOLIDS
100
AcDbVertex
100
AcDbPolygonMeshVertex
10
-144
20
72
30
240
70
64
0
VERTEX
5
B257
100
AcDbEntity
8
SOLIDS
100
AcDbVertex
100
AcDbPolygonMeshVertex
10
-444
20
324
30
240
70
64
0
VERTEX
5
B258
100
AcDbEntity
8
SOLIDS
100
AcDbVertex
100
AcDbPolygonMeshVertex
10
-444
20
324
30
240
70
64
0
VERTEX
5
B259
100
AcDbEntity
8
SOLIDS
100
AcDbVertex
100
AcDbPolygonMeshVertex
10
-444
20
72
30
240
70
64
0
SEQEND
5
B260
100
AcDbEntity
8
SOLIDS
0
POLYLINE
5
B261
100
AcDbEntity
8
SOLIDS
100
AcDbPolygonMesh
66
1
10
0
20
0
30
0
70
16
71
6
72
3
0
VERTEX
5
B262
100
AcDbEntity
8
SOLIDS
100
AcDbVertex
100
AcDbPolygonMeshVertex
10
-128
20
0
30
480
70
64
0
VERTEX
5
B263
100
AcDbEntity
8
SOLIDS
100
AcDbVertex
100
AcDbPolygonMeshVertex
10
-144
20
72
30
240
70
64
0
VERTEX
5
B264
100
AcDbEntity
8
SOLIDS
100
AcDbVertex
100
AcDbPolygonMeshVertex
10
-144
20
72
30
240
70
64
0
VERTEX
5
B265
100
AcDbEntity
8
SOLIDS
100
AcDbVertex
100
AcDbPolygonMeshVertex
10
-408
20
0
30
480
70
64
0
VERTEX
5
B266
100
AcDbEntity
8
SOLIDS
100
AcDbVertex
100
AcDbPolygonMeshVertex
10
-444
20
72
30
240
70
64
0
VERTEX
5
B267
100
AcDbEntity
8
SOLIDS
100
AcDbVertex
100
AcDbPolygonMeshVertex
10
-444
20
72
30
240
70
64
0
VERTEX
5
B268
100
AcDbEntity
8
SOLIDS
100
AcDbVertex
100
AcDbPolygonMeshVertex
10
-408
20
216
30
480
70
64
0
VERTEX
5
B269
100
AcDbEntity
8
SOLIDS
100
AcDbVertex
100
AcDbPolygonMeshVertex
10
-444
20
324
30
240
70
64
0
VERTEX
5
B270
100
AcDbEntity
8
SOLIDS
100
AcDbVertex
100
AcDbPolygonMeshVertex
10
-444
20
72
30
240
70
64
0
VERTEX
5
B271
100
AcDbEntity
8
SOLIDS
100
AcDbVertex
100
AcDbPolygonMeshVertex
10
-128
20
216
30
480
70
64
0
VERTEX
5
B272
100
AcDbEntity
8
SOLIDS
100
AcDbVertex
100
AcDbPolygonMeshVertex
10
-144
20
324
30
240
70
64
0
VERTEX
5
B273
100
AcDbEntity
8
SOLIDS
100
AcDbVertex
100
AcDbPolygonMeshVertex
10
-144
20
72
30
240
70
64
0
VERTEX
5
B274
100
AcDbEntity
8
SOLIDS
100
AcDbVertex
100
AcDbPolygonMeshVertex
10
-128
20
216
30
480
70
64
0
VERTEX
5
B275
100
AcDbEntity
8
SOLIDS
100
AcDbVertex
100
AcDbPolygonMeshVertex
10
-128
20
216
30
480
70
64
0
VERTEX
5
B276
100
AcDbEntity
8
SOLIDS
100
AcDbVertex
100
AcDbPolygonMeshVertex
10
-128
20
0
30
480
70
64
0
VERTEX
5
B277
100
AcDbEntity
8
SOLIDS
100
AcDbVertex
100
AcDbPolygonMeshVertex
10
-408
20
216
30
480
70
64
0
VERTEX
5
B278
100
AcDbEntity
8
SOLIDS
100
AcDbVertex
100
AcDbPolygonMeshVertex
10
-408
20
216
30
480
70
64
0
VERTEX
5
B279
100
AcDbEntity
8
SOLIDS
100
AcDbVertex
100
AcDbPolygonMeshVertex
10
-408
20
0
30
480
70
64
0
SEQEND
5
B280
100
AcDbEntity
8
SOLIDS
0
POLYLINE
5
B281
100
AcDbEntity
8
SOLIDS
100
AcDbPolygonMesh
66
1
10
0
20
0
30
0
70
16
71
6
72
3
0
VERTEX
5
B282
100
AcDbEntity
8
SOLIDS
100
AcDbVertex
100
AcDbPolygonMeshVertex
10
-112
20
-72
30
720
70
64
0
VERTEX
5
B283
100
AcDbEntity
8
SOLIDS
100
AcDbVertex
100
AcDbPolygonMeshVertex
10
-128
20
0
30
480
70
64
0
VERTEX
5
B284
100
AcDbEntity
8
SOLIDS
100
AcDbVertex
100
AcDbPolygonMeshVertex
10
-128
20
0
30
480
70
64
0
VERTEX
5
B285
100
AcDbEntity
8
SOLIDS
100
AcDbVertex
100
AcDbPolygonMeshVertex
10
-372
20
-72
30
720
70
64
0
VERTEX
5
B286
100
AcDbEntity
8
SOLIDS
100
AcDbVertex
100
AcDbPolygonMeshVertex
10
-408
20
0
30
480
70
64
0
VERTEX
5
B287
100
AcDbEntity
8
SOLIDS
100
AcDbVertex
100
AcDbPolygonMeshVertex
10
-408
20
0
30
480
70
64
0
VERTEX
5
B288
100
AcDbEntity
8
SOLIDS
100
AcDbVertex
100
AcDbPolygonMeshVertex
10
-372
20
108
30
720
70
64
0
VERTEX
5
B289
100
AcDbEntity
8
SOLIDS
100
AcDbVertex
100
AcDbPolygonMeshVertex
10
-408
20
216
30
480
70
64
0
VERTEX
5
B290
100
AcDbEntity
8
SOLIDS
100
AcDbVertex
100
AcDbPolygonMeshVertex
10
-408
20
0
30
480
70
64
0
VERTEX
5
B291
100
AcDbEntity
8
SOLIDS
100
AcDbVertex
100
AcDbPolygonMeshVertex
10
-112
20
108
30
720
70
64
0
VERTEX
5
B292
100
AcDbEntity
8
SOLIDS
100
AcDbVertex
100
AcDbPolygonMeshVertex
10
-128
20
216
30
480
70
64
0
VERTEX
5
B293
100
AcDbEntity
8
SOLIDS
100
AcDbVertex
100
AcDbPolygonMeshVertex
10
-128
20
0
30
480
70
64
0
VERTEX
5
B294
100
AcDbEntity
8
SOLIDS
100
AcDbVertex
100
AcDbPolygonMeshVertex
10
-112
20
108
30
720
70
64
0
VERTEX
5
B295
100
AcDbEntity
8
SOLIDS
100
AcDbVertex
100
AcDbPolygonMeshVertex
10
-112
20
108
30
720
70
64
0
VERTEX
5
B296
100
AcDbEntity
8
SOLIDS
100
AcDbVertex
100
AcDbPolygonMeshVertex
10
-112
20
-72
30
720
70
64
0
VERTEX
5
B297
100
AcDbEntity
8
SOLIDS
100
AcDbVertex
100
AcDbPolygonMeshVertex
10
-372
20
108
30
720
70
64
0
VERTEX
5
B298
100
AcDbEntity
8
SOLIDS
100
AcDbVertex
100
AcDbPolygonMeshVertex
10
-372
20
108
30
720
70
64
0
VERTEX
5
B299
100
AcDbEntity
8
SOLIDS
100
AcDbVertex
100
AcDbPolygonMeshVertex
10
-372
20
-72
30
720
70
64
0
SEQEND
5
B300
100
AcDbEntity
8
SOLIDS
0
POLYLINE
5
B301
100
AcDbEntity
8
SOLIDS
100
AcDbPolygonMesh
66
1
10
0
20
0
30
0
70
16
71
6
72
3
0
VERTEX
5
B302
100
AcDbEntity
8
SOLIDS
100
AcDbVertex
100
AcDbPolygonMeshVertex
10
-96
20
-144
30
960
70
64
0
VERTEX
5
B303
100
AcDbEntity
8
SOLIDS
100
AcDbVertex
100
AcDbPolygonMeshVertex
10
-112
20
-72
30
720
70
64
0
VERTEX
5
B304
100
AcDbEntity
8
SOLIDS
100
AcDbVertex
100
AcDbPolygonMeshVertex
10
-112
20
-72
30
720
70
64
0
VERTEX
5
B305
100
AcDbEntity
8
SOLIDS
100
AcDbVertex
100
AcDbPolygonMeshVertex
10
-336
20
-144
30
960
70
64
0
VERTEX
5
B306
100
AcDbEntity
8
SOLIDS
100
AcDbVertex
100
AcDbPolygonMeshVertex
10
-372
20
-72
30
720
70
64
0
VERTEX
5
B307
100
AcDbEntity
8
SOLIDS
100
AcDbVertex
100
AcDbPolygonMeshVertex
10
-372
20
-72
30
720
70
64
0
VERTEX
5
B308
100
AcDbEntity
8
SOLIDS
100
AcDbVertex
100
AcDbPolygonMeshVertex
10
-336
20
0
30
960
70
64
0
VERTEX
5
B309
100
AcDbEntity
8
SOLIDS
100
AcDbVertex
100
AcDbPolygonMeshVertex
10
-372
20
108
30
720
70
64
0
VERTEX
5
B310
100
AcDbEntity
8
SOLIDS
100
AcDbVertex
100
AcDbPolygonMeshVertex
10
-372
20
-72
30
720
70
64
0
VERTEX
5
B311
100
AcDbEntity
8
SOLIDS
100
AcDbVertex
100
AcDbPolygonMeshVertex
10
-96
20
0
30
960
70
64
0
VERTEX
5
B312
100
AcDbEntity
8
SOLIDS
100
AcDbVertex
100
AcDbPolygonMeshVertex
10
-112
20
108
30
720
70
64
0
VERTEX
5
B313
100
AcDbEntity
8
SOLIDS
100
AcDbVertex
100
AcDbPolygonMeshVertex
10
-112
20
-72
30
720
70
64
0
VERTEX
5
B314
100
AcDbEntity
8
SOLIDS
100
AcDbVertex
100
AcDbPolygonMeshVertex
10
-96
20
0
30
960
70
64
0
VERTEX
5
B315
100
AcDbEntity
8
SOLIDS
100
AcDbVertex
100
AcDbPolygonMeshVertex
10
-96
20
0
30
960
70
64
0
VERTEX
5
B316
100
AcDbEntity
8
SOLIDS
100
AcDbVertex
100
AcDbPolygonMeshVertex
10
-96
20
-144
30
960
70
64
0
VERTEX
5
B317
100
AcDbEntity
8
SOLIDS
100
AcDbVertex
100
AcDbPolygonMeshVertex
10
-336
20
0
30
960
70
64
0
VERTEX
5
B318
100
AcDbEntity
8
SOLIDS
100
AcDbVertex
100
AcDbPolygonMeshVertex
10
-336
20
0
30
960
70
64
0
VERTEX
5
B319
100
AcDbEntity
8
SOLIDS
100
AcDbVertex
100
AcDbPolygonMeshVertex
10
-336
20
-144
30
960
70
64
0
SEQEND
5
B320
100
AcDbEntity
8
SOLIDS
0
POLYLINE
5
B321
100
AcDbEntity
8
SOLIDS
100
AcDbPolygonMesh
66
1
10
0
20
0
30
0
70
16
71
6
72
3
0
VERTEX
5
B322
100
AcDbEntity
8
SOLIDS
100
AcDbVertex
100
AcDbPolygonMeshVertex
10
-144
20
324
30
240
70
64
0
VERTEX
5
B323
100
AcDbEntity
8
SOLIDS
100
AcDbVertex
100
AcDbPolygonMeshVertex
10
-160
20
432
30
0
70
64
0
VERTEX
5
B324
100
AcDbEntity
8
SOLIDS
100
AcDbVertex
100
AcDbPolygonMeshVertex
10
-160
20
432
30
0
70
64
0
VERTEX
5
B325
100
AcDbEntity
8
SOLIDS
100
AcDbVertex
100
AcDbPolygonMeshVertex
10
-444
20
324
30
240
70
64
0
VERTEX
5
B326
100
AcDbEntity
8
SOLIDS
100
AcDbVertex
100
AcDbPolygonMeshVertex
10
-480
20
432
30
0
70
64
0
VERTEX
5
B327
100
AcDbEntity
8
SOLIDS
100
AcDbVertex
100
AcDbPolygonMeshVertex
10
-480
20
432
30
0
70
64
0
VERTEX
5
B328
100
AcDbEntity
8
SOLIDS
100
AcDbVertex
100
AcDbPolygonMeshVertex
10
-444
20
576
30
240
70
64
0
VERTEX
5
B329
100
AcDbEntity
8
SOLIDS
100
AcDbVertex
100
AcDbPolygonMeshVertex
10
-480
20
720
30
0
70
64
0
VERTEX
5
B330
100
AcDbEntity
8
SOLIDS
100
AcDbVertex
100
AcDbPolygonMeshVertex
10
-480
20
432
30
0
70
64
0
VERTEX
5
B331
100
AcDbEntity
8
SOLIDS
100
AcDbVertex
100
AcDbPolygonMeshVertex
10
-144
20
576
30
240
70
64
0
VERTEX
5
B332
100
AcDbEntity
8
SOLIDS
100
AcDbVertex
100
AcDbPolygonMeshVertex
10
-160
20
720
30
0
70
64
0
VERTEX
5
B333
100
AcDbEntity
8
SOLIDS
100
AcDbVertex
100
AcDbPolygonMeshVertex
10
-160
20
432
30
0
70
64
0
VERTEX
5
B334
100
AcDbEntity
8
SOLIDS
100
AcDbVertex
100
AcDbPolygonMeshVertex
10
-144
20
576
30
240
70
64
0
VERTEX
5
B335
100
AcDbEntity
8
SOLIDS
100
AcDbVertex
100
AcDbPolygonMeshVertex
10
-144
20
576
30
240
70
64
0
VERTEX
5
B336
100
AcDbEntity
8
SOLIDS
100
AcDbVertex
100
AcDbPolygonMeshVertex
10
-144
20
324
30
240
70
64
0
VERTEX
5
B337
100
AcDbEntity
8
SOLIDS
100
AcDbVertex
100
AcDbPolygonMeshVertex
10
-444
20
576
30
240
70
64
0
VERTEX
5
B338
100
AcDbEntity
8
SOLIDS
100
AcDbVertex
100
AcDbPolygonMeshVertex
10
-444
20
576
30
240
70
64
0
VERTEX
5
B339
100
AcDbEntity
8
SOLIDS
100
AcDbVertex
100
AcDbPolygonMeshVertex
10
-444
20
324
30
240
70
64
0
SEQEND
5
B340
100
AcDbEntity
8
SOLIDS
0
POLYLINE
5
B341
100
AcDbEntity
8
SOLIDS
100
AcDbPolygonMesh
66
1
10
0
20
0
30
0
70
16
71
6
72
3
0
VERTEX
5
B342
100
AcDbEntity
8
SOLIDS
100
AcDbVertex
100
AcDbPolygonMeshVertex
10
-128
20
216
30
480
70
64
0
VERTEX
5
B343
100
AcDbEntity
8
SOLIDS
100
AcDbVertex
100
AcDbPolygonMeshVertex
10
-144
20
324
30
240
70
64
0
VERTEX
5
B344
100
AcDbEntity
8
SOLIDS
100
AcDbVertex
100
AcDbPolygonMeshVertex
10
-144
20
324
30
240
70
64
0
VERTEX
5
B345
100
AcDbEntity
8
SOLIDS
100
AcDbVertex
100
AcDbPolygonMeshVertex
10
-408
20
216
30
480
70
64
0
VERTEX
5
B346
100
AcDbEntity
8
SOLIDS
100
AcDbVertex
100
AcDbPolygonMeshVertex
10
-444
20
324
30
240
70
64
0
VERTEX
5
B347
100
AcDbEntity
8
SOLIDS
100
AcDbVertex
100
AcDbPolygonMeshVertex
10
-444
20
324
30
240
70
64
0
VERTEX
5
B348
100
AcDbEntity
8
SOLIDS
100
AcDbVertex
100
AcDbPolygonMeshVertex
10
-408
20
432
30
480
70
64
0
VERTEX
5
B349
100
AcDbEntity
8
SOLIDS
100
AcDbVertex
100
AcDbPolygonMeshVertex
10
-444
20
576
30
240
70
64
0
VERTEX
5
B350
100
AcDbEntity
8
SOLIDS
100
AcDbVertex
100
AcDbPolygonMeshVertex
10
-444
20
324
30
240
70
64
0
VERTEX
5
B351
100
AcDbEntity
8
SOLIDS
100
AcDbVertex
100
AcDbPolygonMeshVertex
10
-128
20
432
30
480
70
64
0
VERTEX
5
B352
100
AcDbEntity
8
SOLIDS
100
AcDbVertex
100
AcDbPolygonMeshVertex
10
-144
20
576
30
240
70
64
0
VERTEX
5
B353
100
AcDbEntity
8
SOLIDS
100
AcDbVertex
100
AcDbPolygonMeshVertex
10
-144
20
324
30
240
70
64
0
VERTEX
5
B354
100
AcDbEntity
8
SOLIDS
100
AcDbVertex
100
AcDbPolygonMeshVertex
10
-128
20
432
30
480
70
64
0
VERTEX
5
B355
100
AcDbEntity
8
SOLIDS
100
AcDbVertex
100
AcDbPolygonMeshVertex
10
-128
20
432
30
480
70
64
0
VERTEX
5
B356
100
AcDbEntity
8
SOLIDS
100
AcDbVertex
100
AcDbPolygonMeshVertex
10
-128
20
216
30
480
70
64
0
VERTEX
5
B357
100
AcDbEntity
8
SOLIDS
100
AcDbVertex
100
AcDbPolygonMeshVertex
10
-408
20
432
30
480
70
64
0
VERTEX
5
B358
100
AcDbEntity
8
SOLIDS
100
AcDbVertex
100
AcDbPolygonMeshVertex
10
-408
20
432
30
480
70
64
0
VERTEX
5
B359
100
AcDbEntity
8
SOLIDS
100
AcDbVertex
100
AcDbPolygonMeshVertex
10
-408
20
216
30
480
70
64
0
SEQEND
5
B360
100
AcDbEntity
8
SOLIDS
0
POLYLINE
5
B361
100
AcDbEntity
8
SOLIDS
100
AcDbPolygonMesh
66
1
10
0
20
0
30
0
70
16
71
6
72
3
0
VERTEX
5
B362
100
AcDbEntity
8
SOLIDS
100
AcDbVertex
100
AcDbPolygonMeshVertex
10
-112
20
108
30
720
70
64
0
VERTEX
5
B363
100
AcDbEntity
8
SOLIDS
100
AcDbVertex
100
AcDbPolygonMeshVertex
10
-128
20
216
30
480
70
64
0
VERTEX
5
B364
100
AcDbEntity
8
SOLIDS
100
AcDbVertex
100
AcDbPolygonMeshVertex
10
-128
20
216
30
480
70
64
0
VERTEX
5
B365
100
AcDbEntity
8
SOLIDS
100
AcDbVertex
100
AcDbPolygonMeshVertex
10
-372
20
108
30
720
70
64
0
VERTEX
5
B366
100
AcDbEntity
8
SOLIDS
100
AcDbVertex
100
AcDbPolygonMeshVertex
10
-408
20
216
30
480
70
64
0
VERTEX
5
B367
100
AcDbEntity
8
SOLIDS
100
AcDbVertex
100
AcDbPolygonMeshVertex
10
-408
20
216
30
480
70
64
0
VERTEX
5
B368
100
AcDbEntity
8
SOLIDS
100
AcDbVertex
100
AcDbPolygonMeshVertex
10
-372
20
288
30
720
70
64
0
VERTEX
5
B369
100
AcDbEntity
8
SOLIDS
100
AcDbVertex
100
AcDbPolygonMeshVertex
10
-408
20
432
30
480
70
64
0
VERTEX
5
B370
100
AcDbEntity
8
SOLIDS
100
AcDbVertex
100
AcDbPolygonMeshVertex
10
-408
20
216
30
480
70
64
0
VERTEX
5
B371
100
AcDbEntity
8
SOLIDS
100
AcDbVertex
100
AcDbPolygonMeshVertex
10
-112
20
288
30
720
70
64
0
VERTEX
5
B372
100
AcDbEntity
8
SOLIDS
100
AcDbVertex
100
AcDbPolygonMeshVertex
10
-128
20
432
30
480
70
64
0
VERTEX
5
B373
100
AcDbEntity
8
SOLIDS
100
AcDbVertex
100
AcDbPolygonMeshVertex
10
-128
20
216
30
480
70
64
0
VERTEX
5
B374
100
AcDbEntity
8
SOLIDS
100
AcDbVertex
100
AcDbPolygonMeshVertex
10
-112
20
288
30
720
70
64
0
VERTEX
5
B375
100
AcDbEntity
8
SOLIDS
100
AcDbVertex
100
AcDbPolygonMeshVertex
10
-112
20
288
30
720
70
64
0
VERTEX
5
B376
100
AcDbEntity
8
SOLIDS
100
AcDbVertex
100
AcDbPolygonMeshVertex
10
-112
20
108
30
720
70
64
0
VERTEX
5
B377
100
AcDbEntity
8
SOLIDS
100
AcDbVertex
100
AcDbPolygonMeshVertex
10
-372
20
288
30
720
70
64
0
VERTEX
5
B378
100
AcDbEntity
8
SOLIDS
100
AcDbVertex
100
AcDbPolygonMeshVertex
10
-372
20
288
30
720
70
64
0
VERTEX
5
B379
100
AcDbEntity
8
SOLIDS
100
AcDbVertex
100
AcDbPolygonMeshVertex
10
-372
20
108
30
720
70
64
0
SEQEND
5
B380
100
AcDbEntity
8
SOLIDS
0
POLYLINE
5
B381
100
AcDbEntity
8
SOLIDS
100
AcDbPolygonMesh
66
1
10
0
20
0
30
0
70
16
71
6
72
3
0
VERTEX
5
B382
100
AcDbEntity
8
SOLIDS
100
AcDbVertex
100
AcDbPolygonMeshVertex
10
-96
20
0
30
960
70
64
0
VERTEX
5
B383
100
AcDbEntity
8
SOLIDS
100
AcDbVertex
100
AcDbPolygonMeshVertex
10
-112
20
108
30
720
70
64
0
VERTEX
5
B384
100
AcDbEntity
8
SOLIDS
100
AcDbVertex
100
AcDbPolygonMeshVertex
10
-112
20
108
30
720
70
64
0
VERTEX
5
B385
100
AcDbEntity
8
SOLIDS
100
AcDbVertex
100
AcDbPolygonMeshVertex
10
-336
20
0
30
960
70
64
0
VERTEX
5
B386
100
AcDbEntity
8
SOLIDS
100
AcDbVertex
100
AcDbPolygonMeshVertex
10
-372
20
108
30
720
70
64
0
VERTEX
5
B387
100
AcDbEntity
8
SOLIDS
100
AcDbVertex
100
AcDbPolygonMeshVertex
10
-372
20
108
30
720
70
64
0
VERTEX
5
B388
100
AcDbEntity
8
SOLIDS
100
AcDbVertex
100
AcDbPolygonMeshVertex
10
-336
20
144
30
960
70
64
0
VERTEX
5
B389
100
AcDbEntity
8
SOLIDS
100
AcDbVertex
100
AcDbPolygonMeshVertex
10
-372
20
288
30
720
70
64
0
VERTEX
5
B390
100
AcDbEntity
8
SOLIDS
100
AcDbVertex
100
AcDbPolygonMeshVertex
10
-372
20
108
30
720
70
64
0
VERTEX
5
B391
100
AcDbEntity
8
SOLIDS
100
AcDbVertex
100
AcDbPolygonMeshVertex
10
-96
20
144
30
960
70
64
0
VERTEX
5
B392
100
AcDbEntity
8
SOLIDS
100
AcDbVertex
100
AcDbPolygonMeshVertex
10
-112
20
288
30
720
70
64
0
VERTEX
5
B393
100
AcDbEntity
8
SOLIDS
100
AcDbVertex
100
AcDbPolygonMeshVertex
10
-112
20
108
30
720
70
64
0
VERTEX
5
B394
100
AcDbEntity
8
SOLIDS
100
AcDbVertex
100
AcDbPolygonMeshVertex
10
-96
20
144
30
960
70
64
0
VERTEX
5
B395
100
AcDbEntity
8
SOLIDS
100
AcDbVertex
100
AcDbPolygonMeshVertex
10
-96
20
144
30
960
70
64
0
VERTEX
5
B396
100
AcDbEntity
8
SOLIDS
100
AcDbVertex
100
AcDbPolygonMeshVertex
10
-96
20
0
30
960
70
64
0
VERTEX
5
B397
100
AcDbEntity
8
SOLIDS
100
AcDbVertex
100
AcDbPolygonMeshVertex
10
-336
20
144
30
960
70
64
0
VERTEX
5
B398
100
AcDbEntity
8
SOLIDS
100
AcDbVertex
100
AcDbPolygonMeshVertex
10
-336
20
144
30
960
70
64
0
VERTEX
5
B399
100
AcDbEntity
8
SOLIDS
100
AcDbVertex
100
AcDbPolygonMeshVertex
10
-336
20
0
30
960
70
64
0
SEQEND
5
B400
100
AcDbEntity
8
SOLIDS
0
POLYLINE
5
B401
100
AcDbEntity
8
SOLIDS
100
AcDbPolygonMesh
66
1
10
0
20
0
30
0
70
16
71
6
72
3
0
VERTEX
5
B402
100
AcDbEntity
8
SOLIDS
100
AcDbVertex
100
AcDbPolygonMeshVertex
10
156
20
-684
30
240
70
64
0
VERTEX
5
B403
100
AcDbEntity
8
SOLIDS
100
AcDbVertex
100
AcDbPolygonMeshVertex
10
160
20
-720
30
0
70
64
0
VERTEX
5
B404
100
AcDbEntity
8
SOLIDS
100
AcDbVertex
100
AcDbPolygonMeshVertex
10
160
20
-720
30
0
70
64
0
VERTEX
5
B405
100
AcDbEntity
8
SOLIDS
100
AcDbVertex
100
AcDbPolygonMeshVertex
10
-144
20
-684
30
240
70
64
0
VERTEX
5
B406
100
AcDbEntity
8
SOLIDS
100
AcDbVertex
100
AcDbPolygonMeshVertex
10
-160
20
-720
30
0
70
64
0
VERTEX
5
B407
100
AcDbEntity
8
SOLIDS
100
AcDbVertex
100
AcDbPolygonMeshVertex
10
-160
20
-720
30
0
70
64
0
VERTEX
5
B408
100
AcDbEntity
8
SOLIDS
100
AcDbVertex
100
AcDbPolygonMeshVertex
10
-144
20
-432
30
240
70
64
0
VERTEX
5
B409
100
AcDbEntity
8
SOLIDS
100
AcDbVertex
100
AcDbPolygonMeshVertex
10
-160
20
-432
30
0
70
64
0
VERTEX
5
B410
100
AcDbEntity
8
SOLIDS
100
AcDbVertex
100
AcDbPolygonMeshVertex
10
-160
20
-720
30
0
70
64
0
VERTEX
5
B411
100
AcDbEntity
8
SOLIDS
100
AcDbVertex
100
AcDbPolygonMeshVertex
10
156
20
-432
30
240
70
64
0
VERTEX
5
B412
100
AcDbEntity
8
SOLIDS
100
AcDbVertex
100
AcDbPolygonMeshVertex
10
160
20
-432
30
0
70
64
0
VERTEX
5
B413
100
AcDbEntity
8
SOLIDS
100
AcDbVertex
100
AcDbPolygonMeshVertex
10
160
20
-720
30
0
70
64
0
VERTEX
5
B414
100
AcDbEntity
8
SOLIDS
100
AcDbVertex
100
AcDbPolygonMeshVertex
10
156
20
-432
30
240
70
64
0
VERTEX
5
B415
100
AcDbEntity
8
SOLIDS
100
AcDbVertex
100
AcDbPolygonMeshVertex
10
156
20
-432
30
240
70
64
0
VERTEX
5
B416
100
AcDbEntity
8
SOLIDS
100
AcDbVertex
100
AcDbPolygonMeshVertex
10
156
20
-684
30
240
70
64
0
VERTEX
5
B417
100
AcDbEntity
8
SOLIDS
100
AcDbVertex
100
AcDbPolygonMeshVertex
10
-144
20
-432
30
240
70
64
0
VERTEX
5
B418
100
AcDbEntity
8
SOLIDS
100
AcDbVertex
100
AcDbPolygonMeshVertex
10
-144
20
-432
30
240
70
64
0
VERTEX
5
B419
100
AcDbEntity
8
SOLIDS
100
AcDbVertex
100
AcDbPolygonMeshVertex
10
-144
20
-684
30
240
70
64
0
SEQEND
5
B420
100
AcDbEntity
8
SOLIDS
0
POLYLINE
5
B421
100
AcDbEntity
8
SOLIDS
100
AcDbPolygonMesh
66
1
10
0
20
0
30
0
70
16
71
6
72
3
0
VERTEX
5
B422
100
AcDbEntity
8
SOLIDS
100
AcDbVertex
100
AcDbPolygonMeshVertex
10
152
20
-648
30
480
70
64
0
VERTEX
5
B423
100
AcDbEntity
8
SOLIDS
100
AcDbVertex
100
AcDbPolygonMeshVertex
10
156
20
-684
30
240
70
64
0
VERTEX
5
B424
100
AcDbEntity
8
SOLIDS
100
AcDbVertex
100
AcDbPolygonMeshVertex
10
156
20
-684
30
240
70
64
0
VERTEX
5
B425
100
AcDbEntity
8
SOLIDS
100
AcDbVertex
100
AcDbPolygonMeshVertex
10
-128
20
-648
30
480
70
64
0
VERTEX
5
B426
100
AcDbEntity
8
SOLIDS
100
AcDbVertex
100
AcDbPolygonMeshVertex
10
-144
20
-684
30
240
70
64
0
VERTEX
5
B427
100
AcDbEntity
8
SOLIDS
100
AcDbVertex
100
AcDbPolygonMeshVertex
10
-144
20
-684
30
240
70
64
0
VERTEX
5
B428
100
AcDbEntity
8
SOLIDS
100
AcDbVertex
100
AcDbPolygonMeshVertex
10
-128
20
-432
30
480
70
64
0
VERTEX
5
B429
100
AcDbEntity
8
SOLIDS
100
AcDbVertex
100
AcDbPolygonMeshVertex
10
-144
20
-432
30
240
70
64
0
VERTEX
5
B430
100
AcDbEntity
8
SOLIDS
100
AcDbVertex
100
AcDbPolygonMeshVertex
10
-144
20
-684
30
240
70
64
0
VERTEX
5
B431
100
AcDbEntity
8
SOLIDS
100
AcDbVertex
100
AcDbPolygonMeshVertex
10
152
20
-432
30
480
70
64
0
VERTEX
5
B432
100
AcDbEntity
8
SOLIDS
100
AcDbVertex
100
AcDbPolygonMeshVertex
10
156
20
-432
30
240
70
64
0
VERTEX
5
B433
100
AcDbEntity
8
SOLIDS
100
AcDbVertex
100
AcDbPolygonMeshVertex
10
156
20
-684
30
240
70
64
0
VERTEX
5
B434
100
AcDbEntity
8
SOLIDS
100
AcDbVertex
100
AcDbPolygonMeshVertex
10
152
20
-432
30
480
70
64
0
VERTEX
5
B435
100
AcDbEntity
8
SOLIDS
100
AcDbVertex
100
AcDbPolygonMeshVertex
10
152
20
-432
30
480
70
64
0
VERTEX
5
B436
100
AcDbEntity
8
SOLIDS
100
AcDbVertex
100
AcDbPolygonMeshVertex
10
152
20
-648
30
480
70
64
0
VERTEX
5
B437
100
AcDbEntity
8
SOLIDS
100
AcDbVertex
100
AcDbPolygonMeshVertex
10
-128
20
-432
30
480
70
64
0
VERTEX
5
B438
100
AcDbEntity
8
SOLIDS
100
AcDbVertex
100
AcDbPolygonMeshVertex
10
-128
20
-432
30
480
70
64
0
VERTEX
5
B439
100
AcDbEntity
8
SOLIDS
100
AcDbVertex
100
AcDbPolygonMeshVertex
10
-128
20
-648
30
480
70
64
0
SEQEND
5
B440
100
AcDbEntity
8
SOLIDS
0
POLYLINE
5
B441
100
AcDbEntity
8
SOLIDS
100
AcDbPolygonMesh
66
1
10
0
20
0
30
0
70
16
71
6
72
3
0
VERTEX
5
B442
100
AcDbEntity
8
SOLIDS
100
AcDbVertex
100
AcDbPolygonMeshVertex
10
148
20
-612
30
720
70
64
0
VERTEX
5
B443
100
AcDbEntity
8
SOLIDS
100
AcDbVertex
100
AcDbPolygonMeshVertex
10
152
20
-648
30
480
70
64
0
VERTEX
5
B444
100
AcDbEntity
8
SOLIDS
100
AcDbVertex
100
AcDbPolygonMeshVertex
10
152
20
-648
30
480
70
64
0
VERTEX
5
B445
100
AcDbEntity
8
SOLIDS
100
AcDbVertex
100
AcDbPolygonMeshVertex
10
-112
20
-612
30
720
70
64
0
VERTEX
5
B446
100
AcDbEntity
8
SOLIDS
100
AcDbVertex
100
AcDbPolygonMeshVertex
10
-128
20
-648
30
480
70
64
0
VERTEX
5
B447
100
AcDbEntity
8
SOLIDS
100
AcDbVertex
100
AcDbPolygonMeshVertex
10
-128
20
-648
30
480
70
64
0
VERTEX
5
B448
100
AcDbEntity
8
SOLIDS
100
AcDbVertex
100
AcDbPolygonMeshVertex
10
-112
20
-432
30
720
70
64
0
VERTEX
5
B449
100
AcDbEntity
8
SOLIDS
100
AcDbVertex
100
AcDbPolygonMeshVertex
10
-128
20
-432
30
480
70
64
0
VERTEX
5
B450
100
AcDbEntity
8
SOLIDS
100
AcDbVertex
100
AcDbPolygonMeshVertex
10
-128
20
-648
30
480
70
64
0
VERTEX
5
B451
100
AcDbEntity
8
SOLIDS
100
AcDbVertex
100
AcDbPolygonMeshVertex
10
148
20
-432
30
720
70
64
0
VERTEX
5
B452
100
AcDbEntity
8
SOLIDS
100
AcDbVertex
100
AcDbPolygonMeshVertex
10
152
20
-432
30
480
70
64
0
VERTEX
5
B453
100
AcDbEntity
8
SOLIDS
100
AcDbVertex
100
AcDbPolygonMeshVertex
10
152
20
-648
30
480
70
64
0
VERTEX
5
B454
100
AcDbEntity
8
SOLIDS
100
AcDbVertex
100
AcDbPolygonMeshVertex
10
148
20
-432
30
720
70
64
0
VERTEX
5
B455
100
AcDbEntity
8
SOLIDS
100
AcDbVertex
100
AcDbPolygonMeshVertex
10
148
20
-432
30
720
70
64
0
VERTEX
5
B456
100
AcDbEntity
8
SOLIDS
100
AcDbVertex
100
AcDbPolygonMeshVertex
10
148
20
-612
30
720
70
64
0
VERTEX
5
B457
100
AcDbEntity
8
SOLIDS
100
AcDbVertex
100
AcDbPolygonMeshVertex
10
-112
20
-432
30
720
70
64
0
VERTEX
5
B458
100
AcDbEntity
8
SOLIDS
100
AcDbVertex
100
AcDbPolygonMeshVertex
10
-112
20
-432
30
720
70
64
0
VERTEX
5
B459
100
AcDbEntity
8
SOLIDS
100
AcDbVertex
100
AcDbPolygonMeshVertex
10
-112
20
-612
30
720
70
64
0
SEQEND
5
B460
100
AcDbEntity
8
SOLIDS
0
POLYLINE
5
B461
100
AcDbEntity
8
SOLIDS
100
AcDbPolygonMesh
66
1
10
0
20
0
30
0
70
16
71
6
72
3
0
VERTEX
5
B462
100
AcDbEntity
8
SOLIDS
100
AcDbVertex
100
AcDbPolygonMeshVertex
10
144
20
-576
30
960
70
64
0
VERTEX
5
B463
100
AcDbEntity
8
SOLIDS
100
AcDbVertex
100
AcDbPolygonMeshVertex
10
148
20
-612
30
720
70
64
0
VERTEX
5
B464
100
AcDbEntity
8
SOLIDS
100
AcDbVertex
100
AcDbPolygonMeshVertex
10
148
20
-612
30
720
70
64
0
VERTEX
5
B465
100
AcDbEntity
8
SOLIDS
100
AcDbVertex
100
AcDbPolygonMeshVertex
10
-96
20
-576
30
960
70
64
0
VERTEX
5
B466
100
AcDbEntity
8
SOLIDS
100
AcDbVertex
100
AcDbPolygonMeshVertex
10
-112
20
-612
30
720
70
64
0
VERTEX
5
B467
100
AcDbEntity
8
SOLIDS
100
AcDbVertex
100
AcDbPolygonMeshVertex
10
-112
20
-612
30
720
70
64
0
VERTEX
5
B468
100
AcDbEntity
8
SOLIDS
100
AcDbVertex
100
AcDbPolygonMeshVertex
10
-96
20
-432
30
960
70
64
0
VERTEX
5
B469
100
AcDbEntity
8
SOLIDS
100
AcDbVertex
100
AcDbPolygonMeshVertex
10
-112
20
-432
30
720
70
64
0
VERTEX
5
B470
100
AcDbEntity
8
SOLIDS
100
AcDbVertex
100
AcDbPolygonMeshVertex
10
-112
20
-612
30
720
70
64
0
VERTEX
5
B471
100
AcDbEntity
8
SOLIDS
100
AcDbVertex
100
AcDbPolygonMeshVertex
10
144
20
-432
30
960
70
64
0
VERTEX
5
B472
100
AcDbEntity
8
SOLIDS
100
AcDbVertex
100
AcDbPolygonMeshVertex
10
148
20
-432
30
720
70
64
0
VERTEX
5
B473
100
AcDbEntity
8
SOLIDS
100
AcDbVertex
100
AcDbPolygonMeshVertex
10
148
20
-612
30
720
70
64
0
VERTEX
5
B474
100
AcDbEntity
8
SOLIDS
100
AcDbVertex
100
AcDbPolygonMeshVertex
10
144
20
-432
30
960
70
64
0
VERTEX
5
B475
100
AcDbEntity
8
SOLIDS
100
AcDbVertex
100
AcDbPolygonMeshVertex
10
144
20
-432
30
960
70
64
0
VERTEX
5
B476
100
AcDbEntity
8
SOLIDS
100
AcDbVertex
100
AcDbPolygonMeshVertex
10
144
20
-576
30
960
70
64
0
VERTEX
5
B477
100
AcDbEntity
8
SOLIDS
100
AcDbVertex
100
AcDbPolygonMeshVertex
10
-96
20
-432
30
960
70
64
0
VERTEX
5
B478
100
AcDbEntity
8
SOLIDS
100
AcDbVertex
100
AcDbPolygonMeshVertex
10
-96
20
-432
30
960
70
64
0
VERTEX
5
B479
100
AcDbEntity
8
SOLIDS
100
AcDbVertex
100
AcDbPolygonMeshVertex
10
-96
20
-576
30
960
70
64
0
SEQEND
5
B480
100
AcDbEntity
8
SOLIDS
0
POLYLINE
5
B481
100
AcDbEntity
8
SOLIDS
100
AcDbPolygonMesh
66
1
10
0
20
0
30
0
70
16
71
6
72
3
0
VERTEX
5
B482
100
AcDbEntity
8
SOLIDS
100
AcDbVertex
100
AcDbPolygonMeshVertex
10
156
20
-432
30
240
70
64
0
VERTEX
5
B483
100
AcDbEntity
8
SOLIDS
100
AcDbVertex
100
AcDbPolygonMeshVertex
10
160
20
-432
30
0
70
64
0
VERTEX
5
B484
100
AcDbEntity
8
SOLIDS
100
AcDbVertex
100
AcDbPolygonMeshVertex
10
160
20
-432
30
0
70
64
0
VERTEX
5
B485
100
AcDbEntity
8
SOLIDS
100
AcDbVertex
100
AcDbPolygonMeshVertex
10
-144
20
-432
30
240
70
64
0
VERTEX
5
B486
100
AcDbEntity
8
SOLIDS
100
AcDbVertex
100
AcDbPolygonMeshVertex
10
-160
20
-432
30
0
70
64
0
VERTEX
5
B487
100
AcDbEntity
8
SOLIDS
100
AcDbVertex
100
AcDbPolygonMeshVertex
10
-160
20
-432
30
0
70
64
0
VERTEX
5
B488
100
AcDbEntity
8
SOLIDS
100
AcDbVertex
100
AcDbPolygonMeshVertex
10
-144
20
-180
30
240
70
64
0
VERTEX
5
B489
100
AcDbEntity
8
SOLIDS
100
AcDbVertex
100
AcDbPolygonMeshVertex
10
-160
20
-144
30
0
70
64
0
VERTEX
5
B490
100
AcDbEntity
8
SOLIDS
100
AcDbVertex
100
AcDbPolygonMeshVertex
10
-160
20
-432
30
0
70
64
0
VERTEX
5
B491
100
AcDbEntity
8
SOLIDS
100
AcDbVertex
100
AcDbPolygonMeshVertex
10
156
20
-180
30
240
70
64
0
VERTEX
5
B492
100
AcDbEntity
8
SOLIDS
100
AcDbVertex
100
AcDbPolygonMeshVertex
10
160
20
-144
30
0
70
64
0
VERTEX
5
B493
100
AcDbEntity
8
SOLIDS
100
AcDbVertex
100
AcDbPolygonMeshVertex
10
160
20
-432
30
0
70
64
0
VERTEX
5
B494
100
AcDbEntity
8
SOLIDS
100
AcDbVertex
100
AcDbPolygonMeshVertex
10
156
20
-180
30
240
70
64
0
VERTEX
5
B495
100
AcDbEntity
8
SOLIDS
100
AcDbVertex
100
AcDbPolygonMeshVertex
10
156
20
-180
30
240
70
64
0
VERTEX
5
B496
100
AcDbEntity
8
SOLIDS
100
AcDbVertex
100
AcDbPolygonMeshVertex
10
156
20
-432
30
240
70
64
0
VERTEX
5
B497
100
AcDbEntity
8
SOLIDS
100
AcDbVertex
100
AcDbPolygonMeshVertex
10
-144
20
-180
30
240
70
64
0
VERTEX
5
B498
100
AcDbEntity
8
SOLIDS
100
AcDbVertex
100
AcDbPolygonMeshVertex
10
-144
20
-180
30
240
70
64
0
VERTEX
5
B499
100
AcDbEntity
8
SOLIDS
100
AcDbVertex
100
AcDbPolygonMeshVertex
10
-144
20
-432
30
240
70
64
0
SEQEND
5
B500
100
AcDbEntity
8
SOLIDS
0
POLYLINE
5
B501
100
AcDbEntity
8
SOLIDS
100
AcDbPolygonMesh
66
1
10
0
20
0
30
0
70
16
71
6
72
3
0
VERTEX
5
B502
100
AcDbEntity
8
SOLIDS
100
AcDbVertex
100
AcDbPolygonMeshVertex
10
152
20
-432
30
480
70
64
0
VERTEX
5
B503
100
AcDbEntity
8
SOLIDS
100
AcDbVertex
100
AcDbPolygonMeshVertex
10
156
20
-432
30
240
70
64
0
VERTEX
5
B504
100
AcDbEntity
8
SOLIDS
100
AcDbVertex
100
AcDbPolygonMeshVertex
10
156
20
-432
30
240
70
64
0
VERTEX
5
B505
100
AcDbEntity
8
SOLIDS
100
AcDbVertex
100
AcDbPolygonMeshVertex
10
-128
20
-432
30
480
70
64
0
VERTEX
5
B506
100
AcDbEntity
8
SOLIDS
100
AcDbVertex
100
AcDbPolygonMeshVertex
10
-144
20
-432
30
240
70
64
0
VERTEX
5
B507
100
AcDbEntity
8
SOLIDS
100
AcDbVertex
100
AcDbPolygonMeshVertex
10
-144
20
-432
30
240
70
64
0
VERTEX
5
B508
100
AcDbEntity
8
SOLIDS
100
AcDbVertex
100
AcDbPolygonMeshVertex
10
-128
20
-216
30
480
70
64
0
VERTEX
5
B509
100
AcDbEntity
8
SOLIDS
100
AcDbVertex
100
AcDbPolygonMeshVertex
10
-144
20
-180
30
240
70
64
0
VERTEX
5
B510
100
AcDbEntity
8
SOLIDS
100
AcDbVertex
100
AcDbPolygonMeshVertex
10
-144
20
-432
30
240
70
64
0
VERTEX
5
B511
100
AcDbEntity
8
SOLIDS
100
AcDbVertex
100
AcDbPolygonMeshVertex
10
152
20
-216
30
480
70
64
0
VERTEX
5
B512
100
AcDbEntity
8
SOLIDS
100
AcDbVertex
100
AcDbPolygonMeshVertex
10
156
20
-180
30
240
70
64
0
VERTEX
5
B513
100
AcDbEntity
8
SOLIDS
100
AcDbVertex
100
AcDbPolygonMeshVertex
10
156
20
-432
30
240
70
64
0
VERTEX
5
B514
100
AcDbEntity
8
SOLIDS
100
AcDbVertex
100
AcDbPolygonMeshVertex
10
152
20
-216
30
480
70
64
0
VERTEX
5
B515
100
AcDbEntity
8
SOLIDS
100
AcDbVertex
100
AcDbPolygonMeshVertex
10
152
20
-216
30
480
70
64
0
VERTEX
5
B516
100
AcDbEntity
8
SOLIDS
100
AcDbVertex
100
AcDbPolygonMeshVertex
10
152
20
-432
30
480
70
64
0
VERTEX
5
B517
100
AcDbEntity
8
SOLIDS
100
AcDbVertex
100
AcDbPolygonMeshVertex
10
-128
20
-216
30
480
70
64
0
VERTEX
5
B518
100
AcDbEntity
8
SOLIDS
100
AcDbVertex
100
AcDbPolygonMeshVertex
10
-128
20
-216
30
480
70
64
0
VERTEX
5
B519
100
AcDbEntity
8
SOLIDS
100
AcDbVertex
100
AcDbPolygonMeshVertex
10
-128
20
-432
30
480
70
64
0
SEQEND
5
B520
100
AcDbEntity
8
SOLIDS
0
POLYLINE
5
B521
100
AcDbEntity
8
SOLIDS
100
AcDbPolygonMesh
66
1
10
0
20
0
30
0
70
16
71
6
72
3
0
VERTEX
5
B522
100
AcDbEntity
8
SOLIDS
100
AcDbVertex
100
AcDbPolygonMeshVertex
10
148
20
-432
30
720
70
64
0
VERTEX
5
B523
100
AcDbEntity
8
SOLIDS
100
AcDbVertex
100
AcDbPolygonMeshVertex
10
152
20
-432
30
480
70
64
0
VERTEX
5
B524
100
AcDbEntity
8
SOLIDS
100
AcDbVertex
100
AcDbPolygonMeshVertex
10
152
20
-432
30
480
70
64
0
VERTEX
5
B525
100
AcDbEntity
8
SOLIDS
100
AcDbVertex
100
AcDbPolygonMeshVertex
10
-112
20
-432
30
720
70
64
0
VERTEX
5
B526
100
AcDbEntity
8
SOLIDS
100
AcDbVertex
100
AcDbPolygonMeshVertex
10
-128
20
-432
30
480
70
64
0
VERTEX
5
B527
100
AcDbEntity
8
SOLIDS
100
AcDbVertex
100
AcDbPolygonMeshVertex
10
-128
20
-432
30
480
70
64
0
VERTEX
5
B528
100
AcDbEntity
8
SOLIDS
100
AcDbVertex
100
AcDbPolygonMeshVertex
10
-112
20
-252
30
720
70
64
0
VERTEX
5
B529
100
AcDbEntity
8
SOLIDS
100
AcDbVertex
100
AcDbPolygonMeshVertex
10
-128
20
-216
30
480
70
64
0
VERTEX
5
B530
100
AcDbEntity
8
SOLIDS
100
AcDbVertex
100
AcDbPolygonMeshVertex
10
-128
20
-432
30
480
70
64
0
VERTEX
5
B531
100
AcDbEntity
8
SOLIDS
100
AcDbVertex
100
AcDbPolygonMeshVertex
10
148
20
-252
30
720
70
64
0
VERTEX
5
B532
100
AcDbEntity
8
SOLIDS
100
AcDbVertex
100
AcDbPolygonMeshVertex
10
152
20
-216
30
480
70
64
0
VERTEX
5
B533
100
AcDbEntity
8
SOLIDS
100
AcDbVertex
100
AcDbPolygonMeshVertex
10
152
20
-432
30
480
70
64
0
VERTEX
5
B534
100
AcDbEntity
8
SOLIDS
100
AcDbVertex
100
AcDbPolygonMeshVertex
10
148
20
-252
30
720
70
64
0
VERTEX
5
B535
100
AcDbEntity
8
SOLIDS
100
AcDbVertex
100
AcDbPolygonMeshVertex
10
148
20
-252
30
720
70
64
0
VERTEX
5
B536
100
AcDbEntity
8
SOLIDS
100
AcDbVertex
100
AcDbPolygonMeshVertex
10
148
20
-432
30
720
70
64
0
VERTEX
5
B537
100
AcDbEntity
8
SOLIDS
100
AcDbVertex
100
AcDbPolygonMeshVertex
10
-112
20
-252
30
720
70
64
0
VERTEX
5
B538
100
AcDbEntity
8
SOLIDS
100
AcDbVertex
100
AcDbPolygonMeshVertex
10
-112
20
-252
30
720
70
64
0
VERTEX
5
B539
100
AcDbEntity
8
SOLIDS
100
AcDbVertex
100
AcDbPolygonMeshVertex
10
-112
20
-432
30
720
70
64
0
SEQEND
5
B540
100
AcDbEntity
8
SOLIDS
0
POLYLINE
5
B541
100
AcDbEntity
8
SOLIDS
100
AcDbPolygonMesh
66
1
10
0
20
0
30
0
70
16
71
6
72
3
0
VERTEX
5
B542
100
AcDbEntity
8
SOLIDS
100
AcDbVertex
100
AcDbPolygonMeshVertex
10
144
20
-432
30
960
70
64
0
VERTEX
5
B543
100
AcDbEntity
8
SOLIDS
100
AcDbVertex
100
AcDbPolygonMeshVertex
10
148
20
-432
30
720
70
64
0
VERTEX
5
B544
100
AcDbEntity
8
SOLIDS
100
AcDbVertex
100
AcDbPolygonMeshVertex
10
148
20
-432
30
720
70
64
0
VERTEX
5
B545
100
AcDbEntity
8
SOLIDS
100
AcDbVertex
100
AcDbPolygonMeshVertex
10
-96
20
-432
30
960
70
64
0
VERTEX
5
B546
100
AcDbEntity
8
SOLIDS
100
AcDbVertex
100
AcDbPolygonMeshVertex
10
-112
20
-432
30
720
70
64
0
VERTEX
5
B547
100
AcDbEntity
8
SOLIDS
100
AcDbVertex
100
AcDbPolygonMeshVertex
10
-112
20
-432
30
720
70
64
0
VERTEX
5
B548
100
AcDbEntity
8
SOLIDS
100
AcDbVertex
100
AcDbPolygonMeshVertex
10
-96
20
-288
30
960
70
64
0
VERTEX
5
B549
100
AcDbEntity
8
SOLIDS
100
AcDbVertex
100
AcDbPolygonMeshVertex
10
-112
20
-252
30
720
70
64
0
VERTEX
5
B550
100
AcDbEntity
8
SOLIDS
100
AcDbVertex
100
AcDbPolygonMeshVertex
10
-112
20
-432
30
720
70
64
0
VERTEX
5
B551
100
AcDbEntity
8
SOLIDS
100
AcDbVertex
100
AcDbPolygonMeshVertex
10
144
20
-288
30
960
70
64
0
VERTEX
5
B552
100
AcDbEntity
8
SOLIDS
100
AcDbVertex
100
AcDbPolygonMeshVertex
10
148
20
-252
30
720
70
64
0
VERTEX
5
B553
100
AcDbEntity
8
SOLIDS
100
AcDbVertex
100
AcDbPolygonMeshVertex
10
148
20
-432
30
720
70
64
0
VERTEX
5
B554
100
AcDbEntity
8
SOLIDS
100
AcDbVertex
100
AcDbPolygonMeshVertex
10
144
20
-288
30
960
70
64
0
VERTEX
5
B555
100
AcDbEntity
8
SOLIDS
100
AcDbVertex
100
AcDbPolygonMeshVertex
10
144
20
-288
30
960
70
64
0
VERTEX
5
B556
100
AcDbEntity
8
SOLIDS
100
AcDbVertex
100
AcDbPolygonMeshVertex
10
144
20
-432
30
960
70
64
0
VERTEX
5
B557
100
AcDbEntity
8
SOLIDS
100
AcDbVertex
100
AcDbPolygonMeshVertex
10
-96
20
-288
30
960
70
64
0
VERTEX
5
B558
100
AcDbEntity
8
SOLIDS
100
AcDbVertex
100
AcDbPolygonMeshVertex
10
-96
20
-288
30
960
70
64
0
VERTEX
5
B559
100
AcDbEntity
8
SOLIDS
100
AcDbVertex
100
AcDbPolygonMeshVertex
10
-96
20
-432
30
960
70
64
0
SEQEND
5
B560
100
AcDbEntity
8
SOLIDS
0
POLYLINE
5
B561
100
AcDbEntity
8
SOLIDS
100
AcDbPolygonMesh
66
1
10
0
20
0
30
0
70
16
71
6
72
3
0
VERTEX
5
B562
100
AcDbEntity
8
SOLIDS
100
AcDbVertex
100
AcDbPolygonMeshVertex
10
156
20
-180
30
240
70
64
0
VERTEX
5
B563
100
AcDbEntity
8
SOLIDS
100
AcDbVertex
100
AcDbPolygonMeshVertex
10
160
20
-144
30
0
70
64
0
VERTEX
5
B564
100
AcDbEntity
8
SOLIDS
100
AcDbVertex
100
AcDbPolygonMeshVertex
10
160
20
-144
30
0
70
64
0
VERTEX
5
B565
100
AcDbEntity
8
SOLIDS
100
AcDbVertex
100
AcDbPolygonMeshVertex
10
-144
20
-180
30
240
70
64
0
VERTEX
5
B566
100
AcDbEntity
8
SOLIDS
100
AcDbVertex
100
AcDbPolygonMeshVertex
10
-160
20
-144
30
0
70
64
0
VERTEX
5
B567
100
AcDbEntity
8
SOLIDS
100
AcDbVertex
100
AcDbPolygonMeshVertex
10
-160
20
-144
30
0
70
64
0
VERTEX
5
B568
100
AcDbEntity
8
SOLIDS
100
AcDbVertex
100
AcDbPolygonMeshVertex
10
-144
20
72
30
240
70
64
0
VERTEX
5
B569
100
AcDbEntity
8
SOLIDS
100
AcDbVertex
100
AcDbPolygonMeshVertex
10
-160
20
144
30
0
70
64
0
VERTEX
5
B570
100
AcDbEntity
8
SOLIDS
100
AcDbVertex
100
AcDbPolygonMeshVertex
10
-160
20
-144
30
0
70
64
0
VERTEX
5
B571
100
AcDbEntity
8
SOLIDS
100
AcDbVertex
100
AcDbPolygonMeshVertex
10
156
20
72
30
240
70
64
0
VERTEX
5
B572
100
AcDbEntity
8
SOLIDS
100
AcDbVertex
100
AcDbPolygonMeshVertex
10
160
20
144
30
0
70
64
0
VERTEX
5
B573
100
AcDbEntity
8
SOLIDS
100
AcDbVertex
100
AcDbPolygonMeshVertex
10
160
20
-144
30
0
70
64
0
VERTEX
5
B574
100
AcDbEntity
8
SOLIDS
100
AcDbVertex
100
AcDbPolygonMeshVertex
10
156
20
72
30
240
70
64
0
VERTEX
5
B575
100
AcDbEntity
8
SOLIDS
100
AcDbVertex
100
AcDbPolygonMeshVertex
10
156
20
72
30
240
70
64
0
VERTEX
5
B576
100
AcDbEntity
8
SOLIDS
100
AcDbVertex
100
AcDbPolygonMeshVertex
10
156
20
-180
30
240
70
64
0
VERTEX
5
B577
100
AcDbEntity
8
SOLIDS
100
AcDbVertex
100
AcDbPolygonMeshVertex
10
-144
20
72
30
240
70
64
0
VERTEX
5
B578
100
AcDbEntity
8
SOLIDS
100
AcDbVertex
100
AcDbPolygonMeshVertex
10
-144
20
72
30
240
70
64
0
VERTEX
5
B579
100
AcDbEntity
8
SOLIDS
100
AcDbVertex
100
AcDbPolygonMeshVertex
10
-144
20
-180
30
240
70
64
0
SEQEND
5
B580
100
AcDbEntity
8
SOLIDS
0
POLYLINE
5
B581
100
AcDbEntity
8
SOLIDS
100
AcDbPolygonMesh
66
1
10
0
20
0
30
0
70
16
71
6
72
3
0
VERTEX
5
B582
100
AcDbEntity
8
SOLIDS
100
AcDbVertex
100
AcDbPolygonMeshVertex
10
152
20
-216
30
480
70
64
0
VERTEX
5
B583
100
AcDbEntity
8
SOLIDS
100
AcDbVertex
100
AcDbPolygonMeshVertex
10
156
20
-180
30
240
70
64
0
VERTEX
5
B584
100
AcDbEntity
8
SOLIDS
100
AcDbVertex
100
AcDbPolygonMeshVertex
10
156
20
-180
30
240
70
64
0
VERTEX
5
B585
100
AcDbEntity
8
SOLIDS
100
AcDbVertex
100
AcDbPolygonMeshVertex
10
-128
20
-216
30
480
70
64
0
VERTEX
5
B586
100
AcDbEntity
8
SOLIDS
100
AcDbVertex
100
AcDbPolygonMeshVertex
10
-144
20
-180
30
240
70
64
0
VERTEX
5
B587
100
AcDbEntity
8
SOLIDS
100
AcDbVertex
100
AcDbPolygonMeshVertex
10
-144
20
-180
30
240
70
64
0
VERTEX
5
B588
100
AcDbEntity
8
SOLIDS
100
AcDbVertex
100
AcDbPolygonMeshVertex
10
-128
20
0
30
480
70
64
0
VERTEX
5
B589
100
AcDbEntity
8
SOLIDS
100
AcDbVertex
100
AcDbPolygonMeshVertex
10
-144
20
72
30
240
70
64
0
VERTEX
5
B590
100
AcDbEntity
8
SOLIDS
100
AcDbVertex
100
AcDbPolygonMeshVertex
10
-144
20
-180
30
240
70
64
0
VERTEX
5
B591
100
AcDbEntity
8
SOLIDS
100
AcDbVertex
100
AcDbPolygonMeshVertex
10
152
20
0
30
480
70
64
0
VERTEX
5
B592
100
AcDbEntity
8
SOLIDS
100
AcDbVertex
100
AcDbPolygonMeshVertex
10
156
20
72
30
240
70
64
0
VERTEX
5
B593
100
AcDbEntity
8
SOLIDS
100
AcDbVertex
100
AcDbPolygonMeshVertex
10
156
20
-180
30
240
70
64
0
VERTEX
5
B594
100
AcDbEntity
8
SOLIDS
100
AcDbVertex
100
AcDbPolygonMeshVertex
10
152
20
0
30
480
70
64
0
VERTEX
5
B595
100
AcDbEntity
8
SOLIDS
100
AcDbVertex
100
AcDbPolygonMeshVertex
10
152
20
0
30
480
70
64
0
VERTEX
5
B596
100
AcDbEntity
8
SOLIDS
100
AcDbVertex
100
AcDbPolygonMeshVertex
10
152
20
-216
30
480
70
64
0
VERTEX
5
B597
100
AcDbEntity
8
SOLIDS
100
AcDbVertex
100
AcDbPolygonMeshVertex
10
-128
20
0
30
480
70
64
0
VERTEX
5
B598
100
AcDbEntity
8
SOLIDS
100
AcDbVertex
100
AcDbPolygonMeshVertex
10
-128
20
0
30
480
70
64
0
VERTEX
5
B599
100
AcDbEntity
8
SOLIDS
100
AcDbVertex
100
AcDbPolygonMeshVertex
10
-128
20
-216
30
480
70
64
0
SEQEND
5
B600
100
AcDbEntity
8
SOLIDS
0
POLYLINE
5
B601
100
AcDbEntity
8
SOLIDS
100
AcDbPolygonMesh
66
1
10
0
20
0
30
0
70
16
71
6
72
3
0
VERTEX
5
B602
100
AcDbEntity
8
SOLIDS
100
AcDbVertex
100
AcDbPolygonMeshVertex
10
148
20
-252
30
720
70
64
0
VERTEX
5
B603
100
AcDbEntity
8
SOLIDS
100
AcDbVertex
100
AcDbPolygonMeshVertex
10
152
20
-216
30
480
70
64
0
VERTEX
5
B604
100
AcDbEntity
8
SOLIDS
100
AcDbVertex
100
AcDbPolygonMeshVertex
10
152
20
-216
30
480
70
64
0
VERTEX
5
B605
100
AcDbEntity
8
SOLIDS
100
AcDbVertex
100
AcDbPolygonMeshVertex
10
-112
20
-252
30
720
70
64
0
VERTEX
5
B606
100
AcDbEntity
8
SOLIDS
100
AcDbVertex
100
AcDbPolygonMeshVertex
10
-128
20
-216
30
480
70
64
0
VERTEX
5
B607
100
AcDbEntity
8
SOLIDS
100
AcDbVertex
100
AcDbPolygonMeshVertex
10
-128
20
-216
30
480
70
64
0
VERTEX
5
B608
100
AcDbEntity
8
SOLIDS
100
AcDbVertex
100
AcDbPolygonMeshVertex
10
-112
20
-72
30
720
70
64
0
VERTEX
5
B609
100
AcDbEntity
8
SOLIDS
100
AcDbVertex
100
AcDbPolygonMeshVertex
10
-128
20
0
30
480
70
64
0
VERTEX
5
B610
100
AcDbEntity
8
SOLIDS
100
AcDbVertex
100
AcDbPolygonMeshVertex
10
-128
20
-216
30
480
70
64
0
VERTEX
5
B611
100
AcDbEntity
8
SOLIDS
100
AcDbVertex
100
AcDbPolygonMeshVertex
10
148
20
-72
30
720
70
64
0
VERTEX
5
B612
100
AcDbEntity
8
SOLIDS
100
AcDbVertex
100
AcDbPolygonMeshVertex
10
152
20
0
30
480
70
64
0
VERTEX
5
B613
100
AcDbEntity
8
SOLIDS
100
AcDbVertex
100
AcDbPolygonMeshVertex
10
152
20
-216
30
480
70
64
0
VERTEX
5
B614
100
AcDbEntity
8
SOLIDS
100
AcDbVertex
100
AcDbPolygonMeshVertex
10
148
20
-72
30
720
70
64
0
VERTEX
5
B615
100
AcDbEntity
8
SOLIDS
100
AcDbVertex
100
AcDbPolygonMeshVertex
10
148
20
-72
30
720
70
64
0
VERTEX
5
B616
100
AcDbEntity
8
SOLIDS
100
AcDbVertex
100
AcDbPolygonMeshVertex
10
148
20
-252
30
720
70
64
0
VERTEX
5
B617
100
AcDbEntity
8
SOLIDS
100
AcDbVertex
100
AcDbPolygonMeshVertex
10
-112
20
-72
30
720
70
64
0
VERTEX
5
B618
100
AcDbEntity
8
SOLIDS
100
AcDbVertex
100
AcDbPolygonMeshVertex
10
-112
20
-72
30
720
70
64
0
VERTEX
5
B619
100
AcDbEntity
8
SOLIDS
100
AcDbVertex
100
AcDbPolygonMeshVertex
10
-112
20
-252
30
720
70
64
0
SEQEND
5
B620
100
AcDbEntity
8
SOLIDS
0
POLYLINE
5
B621
100
AcDbEntity
8
SOLIDS
100
AcDbPolygonMesh
66
1
10
0
20
0
30
0
70
16
71
6
72
3
0
VERTEX
5
B622
100
AcDbEntity
8
SOLIDS
100
AcDbVertex
100
AcDbPolygonMeshVertex
10
144
20
-288
30
960
70
64
0
VERTEX
5
B623
100
AcDbEntity
8
SOLIDS
100
AcDbVertex
100
AcDbPolygonMeshVertex
10
148
20
-252
30
720
70
64
0
VERTEX
5
B624
100
AcDbEntity
8
SOLIDS
100
AcDbVertex
100
AcDbPolygonMeshVertex
10
148
20
-252
30
720
70
64
0
VERTEX
5
B625
100
AcDbEntity
8
SOLIDS
100
AcDbVertex
100
AcDbPolygonMeshVertex
10
-96
20
-288
30
960
70
64
0
VERTEX
5
B626
100
AcDbEntity
8
SOLIDS
100
AcDbVertex
100
AcDbPolygonMeshVertex
10
-112
20
-252
30
720
70
64
0
VERTEX
5
B627
100
AcDbEntity
8
SOLIDS
100
AcDbVertex
100
AcDbPolygonMeshVertex
10
-112
20
-252
30
720
70
64
0
VERTEX
5
B628
100
AcDbEntity
8
SOLIDS
100
AcDbVertex
100
AcDbPolygonMeshVertex
10
-96
20
-144
30
960
70
64
0
VERTEX
5
B629
100
AcDbEntity
8
SOLIDS
100
AcDbVertex
100
AcDbPolygonMeshVertex
10
-112
20
-72
30
720
70
64
0
VERTEX
5
B630
100
AcDbEntity
8
SOLIDS
100
AcDbVertex
100
AcDbPolygonMeshVertex
10
-112
20
-252
30
720
70
64
0
VERTEX
5
B631
100
AcDbEntity
8
SOLIDS
100
AcDbVertex
100
AcDbPolygonMeshVertex
10
144
20
-144
30
960
70
64
0
VERTEX
5
B632
100
AcDbEntity
8
SOLIDS
100
AcDbVertex
100
AcDbPolygonMeshVertex
10
148
20
-72
30
720
70
64
0
VERTEX
5
B633
100
AcDbEntity
8
SOLIDS
100
AcDbVertex
100
AcDbPolygonMeshVertex
10
148
20
-252
30
720
70
64
0
VERTEX
5
B634
100
AcDbEntity
8
SOLIDS
100
AcDbVertex
100
AcDbPolygonMeshVertex
10
144
20
-144
30
960
70
64
0
VERTEX
5
B635
100
AcDbEntity
8
SOLIDS
100
AcDbVertex
100
AcDbPolygonMeshVertex
10
144
20
-144
30
960
70
64
0
VERTEX
5
B636
100
AcDbEntity
8
SOLIDS
100
AcDbVertex
100
AcDbPolygonMeshVertex
10
144
20
-288
30
960
70
64
0
VERTEX
5
B637
100
AcDbEntity
8
SOLIDS
100
AcDbVertex
100
AcDbPolygonMeshVertex
10
-96
20
-144
30
960
70
64
0
VERTEX
5
B638
100
AcDbEntity
8
SOLIDS
100
AcDbVertex
100
AcDbPolygonMeshVertex
10
-96
20
-144
30
960
70
64
0
VERTEX
5
B639
100
AcDbEntity
8
SOLIDS
100
AcDbVertex
100
AcDbPolygonMeshVertex
10
-96
20
-288
30
960
70
64
0
SEQEND
5
B640
100
AcDbEntity
8
SOLIDS
0
POLYLINE
5
B641
100
AcDbEntity
8
SOLIDS
100
AcDbPolygonMesh
66
1
10
0
20
0
30
0
70
16
71
6
72
3
0
VERTEX
5
B642
100
AcDbEntity
8
SOLIDS
100
AcDbVertex
100
AcDbPolygonMeshVertex
10
156
20
72
30
240
70
64
0
VERTEX
5
B643
100
AcDbEntity
8
SOLIDS
100
AcDbVertex
100
AcDbPolygonMeshVertex
10
160
20
144
30
0
70
64
0
VERTEX
5
B644
100
AcDbEntity
8
SOLIDS
100
AcDbVertex
100
AcDbPolygonMeshVertex
10
160
20
144
30
0
70
64
0
VERTEX
5
B645
100
AcDbEntity
8
SOLIDS
100
AcDbVertex
100
AcDbPolygonMeshVertex
10
-144
20
72
30
240
70
64
0
VERTEX
5
B646
100
AcDbEntity
8
SOLIDS
100
AcDbVertex
100
AcDbPolygonMeshVertex
10
-160
20
144
30
0
70
64
0
VERTEX
5
B647
100
AcDbEntity
8
SOLIDS
100
AcDbVertex
100
AcDbPolygonMeshVertex
10
-160
20
144
30
0
70
64
0
VERTEX
5
B648
100
AcDbEntity
8
SOLIDS
100
AcDbVertex
100
AcDbPolygonMeshVertex
10
-144
20
324
30
240
70
64
0
VERTEX
5
B649
100
AcDbEntity
8
SOLIDS
100
AcDbVertex
100
AcDbPolygonMeshVertex
10
-160
20
432
30
0
70
64
0
VERTEX
5
B650
100
AcDbEntity
8
SOLIDS
100
AcDbVertex
100
AcDbPolygonMeshVertex
10
-160
20
144
30
0
70
64
0
VERTEX
5
B651
100
AcDbEntity
8
SOLIDS
100
AcDbVertex
100
AcDbPolygonMeshVertex
10
156
20
324
30
240
70
64
0
VERTEX
5
B652
100
AcDbEntity
8
SOLIDS
100
AcDbVertex
100
AcDbPolygonMeshVertex
10
160
20
432
30
0
70
64
0
VERTEX
5
B653
100
AcDbEntity
8
SOLIDS
100
AcDbVertex
100
AcDbPolygonMeshVertex
10
160
20
144
30
0
70
64
0
VERTEX
5
B654
100
AcDbEntity
8
SOLIDS
100
AcDbVertex
100
AcDbPolygonMeshVertex
10
156
20
324
30
240
70
64
0
VERTEX
5
B655
100
AcDbEntity
8
SOLIDS
100
AcDbVertex
100
AcDbPolygonMeshVertex
10
156
20
324
30
240
70
64
0
VERTEX
5
B656
100
AcDbEntity
8
SOLIDS
100
AcDbVertex
100
AcDbPolygonMeshVertex
10
156
20
72
30
240
70
64
0
VERTEX
5
B657
100
AcDbEntity
8
SOLIDS
100
AcDbVertex
100
AcDbPolygonMeshVertex
10
-144
20
324
30
240
70
64
0
VERTEX
5
B658
100
AcDbEntity
8
SOLIDS
100
AcDbVertex
100
AcDbPolygonMeshVertex
10
-144
20
324
30
240
70
64
0
VERTEX
5
B659
100
AcDbEntity
8
SOLIDS
100
AcDbVertex
100
AcDbPolygonMeshVertex
10
-144
20
72
30
240
70
64
0
SEQEND
5
B660
100
AcDbEntity
8
SOLIDS
0
POLYLINE
5
B661
100
AcDbEntity
8
SOLIDS
100
AcDbPolygonMesh
66
1
10
0
20
0
30
0
70
16
71
6
72
3
0
VERTEX
5
B662
100
AcDbEntity
8
SOLIDS
100
AcDbVertex
100
AcDbPolygonMeshVertex
10
152
20
0
30
480
70
64
0
VERTEX
5
B663
100
AcDbEntity
8
SOLIDS
100
AcDbVertex
100
AcDbPolygonMeshVertex
10
156
20
72
30
240
70
64
0
VERTEX
5
B664
100
AcDbEntity
8
SOLIDS
100
AcDbVertex
100
AcDbPolygonMeshVertex
10
156
20
72
30
240
70
64
0
VERTEX
5
B665
100
AcDbEntity
8
SOLIDS
100
AcDbVertex
100
AcDbPolygonMeshVertex
10
-128
20
0
30
480
70
64
0
VERTEX
5
B666
100
AcDbEntity
8
SOLIDS
100
AcDbVertex
100
AcDbPolygonMeshVertex
10
-144
20
72
30
240
70
64
0
VERTEX
5
B667
100
AcDbEntity
8
SOLIDS
100
AcDbVertex
100
AcDbPolygonMeshVertex
10
-144
20
72
30
240
70
64
0
VERTEX
5
B668
100
AcDbEntity
8
SOLIDS
100
AcDbVertex
100
AcDbPolygonMeshVertex
10
-128
20
216
30
480
70
64
0
VERTEX
5
B669
100
AcDbEntity
8
SOLIDS
100
AcDbVertex
100
AcDbPolygonMeshVertex
10
-144
20
324
30
240
70
64
0
VERTEX
5
B670
100
AcDbEntity
8
SOLIDS
100
AcDbVertex
100
AcDbPolygonMeshVertex
10
-144
20
72
30
240
70
64
0
VERTEX
5
B671
100
AcDbEntity
8
SOLIDS
100
AcDbVertex
100
AcDbPolygonMeshVertex
10
152
20
216
30
480
70
64
0
VERTEX
5
B672
100
AcDbEntity
8
SOLIDS
100
AcDbVertex
100
AcDbPolygonMeshVertex
10
156
20
324
30
240
70
64
0
VERTEX
5
B673
100
AcDbEntity
8
SOLIDS
100
AcDbVertex
100
AcDbPolygonMeshVertex
10
156
20
72
30
240
70
64
0
VERTEX
5
B674
100
AcDbEntity
8
SOLIDS
100
AcDbVertex
100
AcDbPolygonMeshVertex
10
152
20
216
30
480
70
64
0
VERTEX
5
B675
100
AcDbEntity
8
SOLIDS
100
AcDbVertex
100
AcDbPolygonMeshVertex
10
152
20
216
30
480
70
64
0
VERTEX
5
B676
100
AcDbEntity
8
SOLIDS
100
AcDbVertex
100
AcDbPolygonMeshVertex
10
152
20
0
30
480
70
64
0
VERTEX
5
B677
100
AcDbEntity
8
SOLIDS
100
AcDbVertex
100
AcDbPolygonMeshVertex
10
-128
20
216
30
480
70
64
0
VERTEX
5
B678
100
AcDbEntity
8
SOLIDS
100
AcDbVertex
100
AcDbPolygonMeshVertex
10
-128
20
216
30
480
70
64
0
VERTEX
5
B679
100
AcDbEntity
8
SOLIDS
100
AcDbVertex
100
AcDbPolygonMeshVertex
10
-128
20
0
30
480
70
64
0
SEQEND
5
B680
100
AcDbEntity
8
SOLIDS
0
POLYLINE
5
B681
100
AcDbEntity
8
SOLIDS
100
AcDbPolygonMesh
66
1
10
0
20
0
30
0
70
16
71
6
72
3
0
VERTEX
5
B682
100
AcDbEntity
8
SOLIDS
100
AcDbVertex
100
AcDbPolygonMeshVertex
10
148
20
-72
30
720
70
64
0
VERTEX
5
B683
100
AcDbEntity
8
SOLIDS
100
AcDbVertex
100
AcDbPolygonMeshVertex
10
152
20
0
30
480
70
64
0
VERTEX
5
B684
100
AcDbEntity
8
SOLIDS
100
AcDbVertex
100
AcDbPolygonMeshVertex
10
152
20
0
30
480
70
64
0
VERTEX
5
B685
100
AcDbEntity
8
SOLIDS
100
AcDbVertex
100
AcDbPolygonMeshVertex
10
-112
20
-72
30
720
70
64
0
VERTEX
5
B686
100
AcDbEntity
8
SOLIDS
100
AcDbVertex
100
AcDbPolygonMeshVertex
10
-128
20
0
30
480
70
64
0
VERTEX
5
B687
100
AcDbEntity
8
SOLIDS
100
AcDbVertex
100
AcDbPolygonMeshVertex
10
-128
20
0
30
480
70
64
0
VERTEX
5
B688
100
AcDbEntity
8
SOLIDS
100
AcDbVertex
100
AcDbPolygonMeshVertex
10
-112
20
108
30
720
70
64
0
VERTEX
5
B689
100
AcDbEntity
8
SOLIDS
100
AcDbVertex
100
AcDbPolygonMeshVertex
10
-128
20
216
30
480
70
64
0
VERTEX
5
B690
100
AcDbEntity
8
SOLIDS
100
AcDbVertex
100
AcDbPolygonMeshVertex
10
-128
20
0
30
480
70
64
0
VERTEX
5
B691
100
AcDbEntity
8
SOLIDS
100
AcDbVertex
100
AcDbPolygonMeshVertex
10
148
20
108
30
720
70
64
0
VERTEX
5
B692
100
AcDbEntity
8
SOLIDS
100
AcDbVertex
100
AcDbPolygonMeshVertex
10
152
20
216
30
480
70
64
0
VERTEX
5
B693
100
AcDbEntity
8
SOLIDS
100
AcDbVertex
100
AcDbPolygonMeshVertex
10
152
20
0
30
480
70
64
0
VERTEX
5
B694
100
AcDbEntity
8
SOLIDS
100
AcDbVertex
100
AcDbPolygonMeshVertex
10
148
20
108
30
720
70
64
0
VERTEX
5
B695
100
AcDbEntity
8
SOLIDS
100
AcDbVertex
100
AcDbPolygonMeshVertex
10
148
20
108
30
720
70
64
0
VERTEX
5
B696
100
AcDbEntity
8
SOLIDS
100
AcDbVertex
100
AcDbPolygonMeshVertex
10
148
20
-72
30
720
70
64
0
VERTEX
5
B697
100
AcDbEntity
8
SOLIDS
100
AcDbVertex
100
AcDbPolygonMeshVertex
10
-112
20
108
30
720
70
64
0
VERTEX
5
B698
100
AcDbEntity
8
SOLIDS
100
AcDbVertex
100
AcDbPolygonMeshVertex
10
-112
20
108
30
720
70
64
0
VERTEX
5
B699
100
AcDbEntity
8
SOLIDS
100
AcDbVertex
100
AcDbPolygonMeshVertex
10
-112
20
-72
30
720
70
64
0
SEQEND
5
B700
100
AcDbEntity
8
SOLIDS
0
POLYLINE
5
B701
100
AcDbEntity
8
SOLIDS
100
AcDbPolygonMesh
66
1
10
0
20
0
30
0
70
16
71
6
72
3
0
VERTEX
5
B702
100
AcDbEntity
8
SOLIDS
100
AcDbVertex
100
AcDbPolygonMeshVertex
10
144
20
-144
30
960
70
64
0
VERTEX
5
B703
100
AcDbEntity
8
SOLIDS
100
AcDbVertex
100
AcDbPolygonMeshVertex
10
148
20
-72
30
720
70
64
0
VERTEX
5
B704
100
AcDbEntity
8
SOLIDS
100
AcDbVertex
100
AcDbPolygonMeshVertex
10
148
20
-72
30
720
70
64
0
VERTEX
5
B705
100
AcDbEntity
8
SOLIDS
100
AcDbVertex
100
AcDbPolygonMeshVertex
10
-96
20
-144
30
960
70
64
0
VERTEX
5
B706
100
AcDbEntity
8
SOLIDS
100
AcDbVertex
100
AcDbPolygonMeshVertex
10
-112
20
-72
30
720
70
64
0
VERTEX
5
B707
100
AcDbEntity
8
SOLIDS
100
AcDbVertex
100
AcDbPolygonMeshVertex
10
-112
20
-72
30
720
70
64
0
VERTEX
5
B708
100
AcDbEntity
8
SOLIDS
100
AcDbVertex
100
AcDbPolygonMeshVertex
10
-96
20
0
30
960
70
64
0
VERTEX
5
B709
100
AcDbEntity
8
SOLIDS
100
AcDbVertex
100
AcDbPolygonMeshVertex
10
-112
20
108
30
720
70
64
0
VERTEX
5
B710
100
AcDbEntity
8
SOLIDS
100
AcDbVertex
100
AcDbPolygonMeshVertex
10
-112
20
-72
30
720
70
64
0
VERTEX
5
B711
100
AcDbEntity
8
SOLIDS
100
AcDbVertex
100
AcDbPolygonMeshVertex
10
144
20
0
30
960
70
64
0
VERTEX
5
B712
100
AcDbEntity
8
SOLIDS
100
AcDbVertex
100
AcDbPolygonMeshVertex
10
148
20
108
30
720
70
64
0
VERTEX
5
B713
100
AcDbEntity
8
SOLIDS
100
AcDbVertex
100
AcDbPolygonMeshVertex
10
148
20
-72
30
720
70
64
0
VERTEX
5
B714
100
AcDbEntity
8
SOLIDS
100
AcDbVertex
100
AcDbPolygonMeshVertex
10
144
20
0
30
960
70
64
0
VERTEX
5
B715
100
AcDbEntity
8
SOLIDS
100
AcDbVertex
100
AcDbPolygonMeshVertex
10
144
20
0
30
960
70
64
0
VERTEX
5
B716
100
AcDbEntity
8
SOLIDS
100
AcDbVertex
100
AcDbPolygonMeshVertex
10
144
20
-144
30
960
70
64
0
VERTEX
5
B717
100
AcDbEntity
8
SOLIDS
100
AcDbVertex
100
AcDbPolygonMeshVertex
10
-96
20
0
30
960
70
64
0
VERTEX
5
B718
100
AcDbEntity
8
SOLIDS
100
AcDbVertex
100
AcDbPolygonMeshVertex
10
-96
20
0
30
960
70
64
0
VERTEX
5
B719
100
AcDbEntity
8
SOLIDS
100
AcDbVertex
100
AcDbPolygonMeshVertex
10
-96
20
-144
30
960
70
64
0
SEQEND
5
B720
100
AcDbEntity
8
SOLIDS
0
POLYLINE
5
B721
100
AcDbEntity
8
SOLIDS
100
AcDbPolygonMesh
66
1
10
0
20
0
30
0
70
16
71
6
72
3
0
VERTEX
5
B722
100
AcDbEntity
8
SOLIDS
100
AcDbVertex
100
AcDbPolygonMeshVertex
10
156
20
324
30
240
70
64
0
VERTEX
5
B723
100
AcDbEntity
8
SOLIDS
100
AcDbVertex
100
AcDbPolygonMeshVertex
10
160
20
432
30
0
70
64
0
VERTEX
5
B724
100
AcDbEntity
8
SOLIDS
100
AcDbVertex
100
AcDbPolygonMeshVertex
10
160
20
432
30
0
70
64
0
VERTEX
5
B725
100
AcDbEntity
8
SOLIDS
100
AcDbVertex
100
AcDbPolygonMeshVertex
10
-144
20
324
30
240
70
64
0
VERTEX
5
B726
100
AcDbEntity
8
SOLIDS
100
AcDbVertex
100
AcDbPolygonMeshVertex
10
-160
20
432
30
0
70
64
0
VERTEX
5
B727
100
AcDbEntity
8
SOLIDS
100
AcDbVertex
100
AcDbPolygonMeshVertex
10
-160
20
432
30
0
70
64
0
VERTEX
5
B728
100
AcDbEntity
8
SOLIDS
100
AcDbVertex
100
AcDbPolygonMeshVertex
10
-144
20
576
30
240
70
64
0
VERTEX
5
B729
100
AcDbEntity
8
SOLIDS
100
AcDbVertex
100
AcDbPolygonMeshVertex
10
-160
20
720
30
0
70
64
0
VERTEX
5
B730
100
AcDbEntity
8
SOLIDS
100
AcDbVertex
100
AcDbPolygonMeshVertex
10
-160
20
432
30
0
70
64
0
VERTEX
5
B731
100
AcDbEntity
8
SOLIDS
100
AcDbVertex
100
AcDbPolygonMeshVertex
10
156
20
576
30
240
70
64
0
VERTEX
5
B732
100
AcDbEntity
8
SOLIDS
100
AcDbVertex
100
AcDbPolygonMeshVertex
10
160
20
720
30
0
70
64
0
VERTEX
5
B733
100
AcDbEntity
8
SOLIDS
100
AcDbVertex
100
AcDbPolygonMeshVertex
10
160
20
432
30
0
70
64
0
VERTEX
5
B734
100
AcDbEntity
8
SOLIDS
100
AcDbVertex
100
AcDbPolygonMeshVertex
10
156
20
576
30
240
70
64
0
VERTEX
5
B735
100
AcDbEntity
8
SOLIDS
100
AcDbVertex
100
AcDbPolygonMeshVertex
10
156
20
576
30
240
70
64
0
VERTEX
5
B736
100
AcDbEntity
8
SOLIDS
100
AcDbVertex
100
AcDbPolygonMeshVertex
10
156
20
324
30
240
70
64
0
VERTEX
5
B737
100
AcDbEntity
8
SOLIDS
100
AcDbVertex
100
AcDbPolygonMeshVertex
10
-144
20
576
30
240
70
64
0
VERTEX
5
B738
100
AcDbEntity
8
SOLIDS
100
AcDbVertex
100
AcDbPolygonMeshVertex
10
-144
20
576
30
240
70
64
0
VERTEX
5
B739
100
AcDbEntity
8
SOLIDS
100
AcDbVertex
100
AcDbPolygonMeshVertex
10
-144
20
324
30
240
70
64
0
SEQEND
5
B740
100
AcDbEntity
8
SOLIDS
0
POLYLINE
5
B741
100
AcDbEntity
8
SOLIDS
100
AcDbPolygonMesh
66
1
10
0
20
0
30
0
70
16
71
6
72
3
0
VERTEX
5
B742
100
AcDbEntity
8
SOLIDS
100
AcDbVertex
100
AcDbPolygonMeshVertex
10
152
20
216
30
480
70
64
0
VERTEX
5
B743
100
AcDbEntity
8
SOLIDS
100
AcDbVertex
100
AcDbPolygonMeshVertex
10
156
20
324
30
240
70
64
0
VERTEX
5
B744
100
AcDbEntity
8
SOLIDS
100
AcDbVertex
100
AcDbPolygonMeshVertex
10
156
20
324
30
240
70
64
0
VERTEX
5
B745
100
AcDbEntity
8
SOLIDS
100
AcDbVertex
100
AcDbPolygonMeshVertex
10
-128
20
216
30
480
70
64
0
VERTEX
5
B746
100
AcDbEntity
8
SOLIDS
100
AcDbVertex
100
AcDbPolygonMeshVertex
10
-144
20
324
30
240
70
64
0
VERTEX
5
B747
100
AcDbEntity
8
SOLIDS
100
AcDbVertex
100
AcDbPolygonMeshVertex
10
-144
20
324
30
240
70
64
0
VERTEX
5
B748
100
AcDbEntity
8
SOLIDS
100
AcDbVertex
100
AcDbPolygonMeshVertex
10
-128
20
432
30
480
70
64
0
VERTEX
5
B749
100
AcDbEntity
8
SOLIDS
100
AcDbVertex
100
AcDbPolygonMeshVertex
10
-144
20
576
30
240
70
64
0
VERTEX
5
B750
100
AcDbEntity
8
SOLIDS
100
AcDbVertex
100
AcDbPolygonMeshVertex
10
-144
20
324
30
240
70
64
0
VERTEX
5
B751
100
AcDbEntity
8
SOLIDS
100
AcDbVertex
100
AcDbPolygonMeshVertex
10
152
20
432
30
480
70
64
0
VERTEX
5
B752
100
AcDbEntity
8
SOLIDS
100
AcDbVertex
100
AcDbPolygonMeshVertex
10
156
20
576
30
240
70
64
0
VERTEX
5
B753
100
AcDbEntity
8
SOLIDS
100
AcDbVertex
100
AcDbPolygonMeshVertex
10
156
20
324
30
240
70
64
0
VERTEX
5
B754
100
AcDbEntity
8
SOLIDS
100
AcDbVertex
100
AcDbPolygonMeshVertex
10
152
20
432
30
480
70
64
0
VERTEX
5
B755
100
AcDbEntity
8
SOLIDS
100
AcDbVertex
100
AcDbPolygonMeshVertex
10
152
20
432
30
480
70
64
0
VERTEX
5
B756
100
AcDbEntity
8
SOLIDS
100
AcDbVertex
100
AcDbPolygonMeshVertex
10
152
20
216
30
480
70
64
0
VERTEX
5
B757
100
AcDbEntity
8
SOLIDS
100
AcDbVertex
100
AcDbPolygonMeshVertex
10
-128
20
432
30
480
70
64
0
VERTEX
5
B758
100
AcDbEntity
8
SOLIDS
100
AcDbVertex
100
AcDbPolygonMeshVertex
10
-128
20
432
30
480
70
64
0
VERTEX
5
B759
100
AcDbEntity
8
SOLIDS
100
AcDbVertex
100
AcDbPolygonMeshVertex
10
-128
20
216
30
480
70
64
0
SEQEND
5
B760
100
AcDbEntity
8
SOLIDS
0
POLYLINE
5
B761
100
AcDbEntity
8
SOLIDS
100
AcDbPolygonMesh
66
1
10
0
20
0
30
0
70
16
71
6
72
3
0
VERTEX
5
B762
100
AcDbEntity
8
SOLIDS
100
AcDbVertex
100
AcDbPolygonMeshVertex
10
148
20
108
30
720
70
64
0
VERTEX
5
B763
100
AcDbEntity
8
SOLIDS
100
AcDbVertex
100
AcDbPolygonMeshVertex
10
152
20
216
30
480
70
64
0
VERTEX
5
B764
100
AcDbEntity
8
SOLIDS
100
AcDbVertex
100
AcDbPolygonMeshVertex
10
152
20
216
30
480
70
64
0
VERTEX
5
B765
100
AcDbEntity
8
SOLIDS
100
AcDbVertex
100
AcDbPolygonMeshVertex
10
-112
20
108
30
720
70
64
0
VERTEX
5
B766
100
AcDbEntity
8
SOLIDS
100
AcDbVertex
100
AcDbPolygonMeshVertex
10
-128
20
216
30
480
70
64
0
VERTEX
5
B767
100
AcDbEntity
8
SOLIDS
100
AcDbVertex
100
AcDbPolygonMeshVertex
10
-128
20
216
30
480
70
64
0
VERTEX
5
B768
100
AcDbEntity
8
SOLIDS
100
AcDbVertex
100
AcDbPolygonMeshVertex
10
-112
20
288
30
720
70
64
0
VERTEX
5
B769
100
AcDbEntity
8
SOLIDS
100
AcDbVertex
100
AcDbPolygonMeshVertex
10
-128
20
432
30
480
70
64
0
VERTEX
5
B770
100
AcDbEntity
8
SOLIDS
100
AcDbVertex
100
AcDbPolygonMeshVertex
10
-128
20
216
30
480
70
64
0
VERTEX
5
B771
100
AcDbEntity
8
SOLIDS
100
AcDbVertex
100
AcDbPolygonMeshVertex
10
148
20
288
30
720
70
64
0
VERTEX
5
B772
100
AcDbEntity
8
SOLIDS
100
AcDbVertex
100
AcDbPolygonMeshVertex
10
152
20
432
30
480
70
64
0
VERTEX
5
B773
100
AcDbEntity
8
SOLIDS
100
AcDbVertex
100
AcDbPolygonMeshVertex
10
152
20
216
30
480
70
64
0
VERTEX
5
B774
100
AcDbEntity
8
SOLIDS
100
AcDbVertex
100
AcDbPolygonMeshVertex
10
148
20
288
30
720
70
64
0
VERTEX
5
B775
100
AcDbEntity
8
SOLIDS
100
AcDbVertex
100
AcDbPolygonMeshVertex
10
148
20
288
30
720
70
64
0
VERTEX
5
B776
100
AcDbEntity
8
SOLIDS
100
AcDbVertex
100
AcDbPolygonMeshVertex
10
148
20
108
30
720
70
64
0
VERTEX
5
B777
100
AcDbEntity
8
SOLIDS
100
AcDbVertex
100
AcDbPolygonMeshVertex
10
-112
20
288
30
720
70
64
0
VERTEX
5
B778
100
AcDbEntity
8
SOLIDS
100
AcDbVertex
100
AcDbPolygonMeshVertex
10
-112
20
288
30
720
70
64
0
VERTEX
5
B779
100
AcDbEntity
8
SOLIDS
100
AcDbVertex
100
AcDbPolygonMeshVertex
10
-112
20
108
30
720
70
64
0
SEQEND
5
B780
100
AcDbEntity
8
SOLIDS
0
POLYLINE
5
B781
100
AcDbEntity
8
SOLIDS
100
AcDbPolygonMesh
66
1
10
0
20
0
30
0
70
16
71
6
72
3
0
VERTEX
5
B782
100
AcDbEntity
8
SOLIDS
100
AcDbVertex
100
AcDbPolygonMeshVertex
10
144
20
0
30
960
70
64
0
VERTEX
5
B783
100
AcDbEntity
8
SOLIDS
100
AcDbVertex
100
AcDbPolygonMeshVertex
10
148
20
108
30
720
70
64
0
VERTEX
5
B784
100
AcDbEntity
8
SOLIDS
100
AcDbVertex
100
AcDbPolygonMeshVertex
10
148
20
108
30
720
70
64
0
VERTEX
5
B785
100
AcDbEntity
8
SOLIDS
100
AcDbVertex
100
AcDbPolygonMeshVertex
10
-96
20
0
30
960
70
64
0
VERTEX
5
B786
100
AcDbEntity
8
SOLIDS
100
AcDbVertex
100
AcDbPolygonMeshVertex
10
-112
20
108
30
720
70
64
0
VERTEX
5
B787
100
AcDbEntity
8
SOLIDS
100
AcDbVertex
100
AcDbPolygonMeshVertex
10
-112
20
108
30
720
70
64
0
VERTEX
5
B788
100
AcDbEntity
8
SOLIDS
100
AcDbVertex
100
AcDbPolygonMeshVertex
10
-96
20
144
30
960
70
64
0
VERTEX
5
B789
100
AcDbEntity
8
SOLIDS
100
AcDbVertex
100
AcDbPolygonMeshVertex
10
-112
20
288
30
720
70
64
0
VERTEX
5
B790
100
AcDbEntity
8
SOLIDS
100
AcDbVertex
100
AcDbPolygonMeshVertex
10
-112
20
108
30
720
70
64
0
VERTEX
5
B791
100
AcDbEntity
8
SOLIDS
100
AcDbVertex
100
AcDbPolygonMeshVertex
10
144
20
144
30
960
70
64
0
VERTEX
5
B792
100
AcDbEntity
8
SOLIDS
100
AcDbVertex
100
AcDbPolygonMeshVertex
10
148
20
288
30
720
70
64
0
VERTEX
5
B793
100
AcDbEntity
8
SOLIDS
100
AcDbVertex
100
AcDbPolygonMeshVertex
10
148
20
108
30
720
70
64
0
VERTEX
5
B794
100
AcDbEntity
8
SOLIDS
100
AcDbVertex
100
AcDbPolygonMeshVertex
10
144
20
144
30
960
70
64
0
VERTEX
5
B795
100
AcDbEntity
8
SOLIDS
100
AcDbVertex
100
AcDbPolygonMeshVertex
10
144
20
144
30
960
70
64
0
VERTEX
5
B796
100
AcDbEntity
8
SOLIDS
100
AcDbVertex
100
AcDbPolygonMeshVertex
10
144
20
0
30
960
70
64
0
VERTEX
5
B797
100
AcDbEntity
8
SOLIDS
100
AcDbVertex
100
AcDbPolygonMeshVertex
10
-96
20
144
30
960
70
64
0
VERTEX
5
B798
100
AcDbEntity
8
SOLIDS
100
AcDbVertex
100
AcDbPolygonMeshVertex
10
-96
20
144
30
960
70
64
0
VERTEX
5
B799
100
AcDbEntity
8
SOLIDS
100
AcDbVertex
100
AcDbPolygonMeshVertex
10
-96
20
0
30
960
70
64
0
SEQEND
5
B800
100
AcDbEntity
8
SOLIDS
0
POLYLINE
5
B801
100
AcDbEntity
8
SOLIDS
100
AcDbPolygonMesh
66
1
10
0
20
0
30
0
70
16
71
6
72
3
0
VERTEX
5
B802
100
AcDbEntity
8
SOLIDS
100
AcDbVertex
100
AcDbPolygonMeshVertex
10
456
20
-684
30
240
70
64
0
VERTEX
5
B803
100
AcDbEntity
8
SOLIDS
100
AcDbVertex
100
AcDbPolygonMeshVertex
10
480
20
-720
30
0
70
64
0
VERTEX
5
B804
100
AcDbEntity
8
SOLIDS
100
AcDbVertex
100
AcDbPolygonMeshVertex
10
480
20
-720
30
0
70
64
0
VERTEX
5
B805
100
AcDbEntity
8
SOLIDS
100
AcDbVertex
100
AcDbPolygonMeshVertex
10
156
20
-684
30
240
70
64
0
VERTEX
5
B806
100
AcDbEntity
8
SOLIDS
100
AcDbVertex
100
AcDbPolygonMeshVertex
10
160
20
-720
30
0
70
64
0
VERTEX
5
B807
100
AcDbEntity
8
SOLIDS
100
AcDbVertex
100
AcDbPolygonMeshVertex
10
160
20
-720
30
0
70
64
0
VERTEX
5
B808
100
AcDbEntity
8
SOLIDS
100
AcDbVertex
100
AcDbPolygonMeshVertex
10
156
20
-432
30
240
70
64
0
VERTEX
5
B809
100
AcDbEntity
8
SOLIDS
100
AcDbVertex
100
AcDbPolygonMeshVertex
10
160
20
-432
30
0
70
64
0
VERTEX
5
B810
100
AcDbEntity
8
SOLIDS
100
AcDbVertex
100
AcDbPolygonMeshVertex
10
160
20
-720
30
0
70
64
0
VERTEX
5
B811
100
AcDbEntity
8
SOLIDS
100
AcDbVertex
100
AcDbPolygonMeshVertex
10
456
20
-432
30
240
70
64
0
VERTEX
5
B812
100
AcDbEntity
8
SOLIDS
100
AcDbVertex
100
AcDbPolygonMeshVertex
10
480
20
-432
30
0
70
64
0
VERTEX
5
B813
100
AcDbEntity
8
SOLIDS
100
AcDbVertex
100
AcDbPolygonMeshVertex
10
480
20
-720
30
0
70
64
0
VERTEX
5
B814
100
AcDbEntity
8
SOLIDS
100
AcDbVertex
100
AcDbPolygonMeshVertex
10
456
20
-432
30
240
70
64
0
VERTEX
5
B815
100
AcDbEntity
8
SOLIDS
100
AcDbVertex
100
AcDbPolygonMeshVertex
10
456
20
-432
30
240
70
64
0
VERTEX
5
B816
100
AcDbEntity
8
SOLIDS
100
AcDbVertex
100
AcDbPolygonMeshVertex
10
456
20
-684
30
240
70
64
0
VERTEX
5
B817
100
AcDbEntity
8
SOLIDS
100
AcDbVertex
100
AcDbPolygonMeshVertex
10
156
20
-432
30
240
70
64
0
VERTEX
5
B818
100
AcDbEntity
8
SOLIDS
100
AcDbVertex
100
AcDbPolygonMeshVertex
10
156
20
-432
30
240
70
64
0
VERTEX
5
B819
100
AcDbEntity
8
SOLIDS
100
AcDbVertex
100
AcDbPolygonMeshVertex
10
156
20
-684
30
240
70
64
0
SEQEND
5
B820
100
AcDbEntity
8
SOLIDS
0
POLYLINE
5
B821
100
AcDbEntity
8
SOLIDS
100
AcDbPolygonMesh
66
1
10
0
20
0
30
0
70
16
71
6
72
3
0
VERTEX
5
B822
100
AcDbEntity
8
SOLIDS
100
AcDbVertex
100
AcDbPolygonMeshVertex
10
432
20
-648
30
480
70
64
0
VERTEX
5
B823
100
AcDbEntity
8
SOLIDS
100
AcDbVertex
100
AcDbPolygonMeshVertex
10
456
20
-684
30
240
70
64
0
VERTEX
5
B824
100
AcDbEntity
8
SOLIDS
100
AcDbVertex
100
AcDbPolygonMeshVertex
10
456
20
-684
30
240
70
64
0
VERTEX
5
B825
100
AcDbEntity
8
SOLIDS
100
AcDbVertex
100
AcDbPolygonMeshVertex
10
152
20
-648
30
480
70
64
0
VERTEX
5
B826
100
AcDbEntity
8
SOLIDS
100
AcDbVertex
100
AcDbPolygonMeshVertex
10
156
20
-684
30
240
70
64
0
VERTEX
5
B827
100
AcDbEntity
8
SOLIDS
100
AcDbVertex
100
AcDbPolygonMeshVertex
10
156
20
-684
30
240
70
64
0
VERTEX
5
B828
100
AcDbEntity
8
SOLIDS
100
AcDbVertex
100
AcDbPolygonMeshVertex
10
152
20
-432
30
480
70
64
0
VERTEX
5
B829
100
AcDbEntity
8
SOLIDS
100
AcDbVertex
100
AcDbPolygonMeshVertex
10
156
20
-432
30
240
70
64
0
VERTEX
5
B830
100
AcDbEntity
8
SOLIDS
100
AcDbVertex
100
AcDbPolygonMeshVertex
10
156
20
-684
30
240
70
64
0
VERTEX
5
B831
100
AcDbEntity
8
SOLIDS
100
AcDbVertex
100
AcDbPolygonMeshVertex
10
432
20
-432
30
480
70
64
0
VERTEX
5
B832
100
AcDbEntity
8
SOLIDS
100
AcDbVertex
100
AcDbPolygonMeshVertex
10
456
20
-432
30
240
70
64
0
VERTEX
5
B833
100
AcDbEntity
8
SOLIDS
100
AcDbVertex
100
AcDbPolygonMeshVertex
10
456
20
-684
30
240
70
64
0
VERTEX
5
B834
100
AcDbEntity
8
SOLIDS
100
AcDbVertex
100
AcDbPolygonMeshVertex
10
432
20
-432
30
480
70
64
0
VERTEX
5
B835
100
AcDbEntity
8
SOLIDS
100
AcDbVertex
100
AcDbPolygonMeshVertex
10
432
20
-432
30
480
70
64
0
VERTEX
5
B836
100
AcDbEntity
8
SOLIDS
100
AcDbVertex
100
AcDbPolygonMeshVertex
10
432
20
-648
30
480
70
64
0
VERTEX
5
B837
100
AcDbEntity
8
SOLIDS
100
AcDbVertex
100
AcDbPolygonMeshVertex
10
152
20
-432
30
480
70
64
0
VERTEX
5
B838
100
AcDbEntity
8
SOLIDS
100
AcDbVertex
100
AcDbPolygonMeshVertex
10
152
20
-432
30
480
70
64
0
VERTEX
5
B839
100
AcDbEntity
8
SOLIDS
100
AcDbVertex
100
AcDbPolygonMeshVertex
10
152
20
-648
30
480
70
64
0
SEQEND
5
B840
100
AcDbEntity
8
SOLIDS
0
POLYLINE
5
B841
100
AcDbEntity
8
SOLIDS
100
AcDbPolygonMesh
66
1
10
0
20
0
30
0
70
16
71
6
72
3
0
VERTEX
5
B842
100
AcDbEntity
8
SOLIDS
100
AcDbVertex
100
AcDbPolygonMeshVertex
10
408
20
-612
30
720
70
64
0
VERTEX
5
B843
100
AcDbEntity
8
SOLIDS
100
AcDbVertex
100
AcDbPolygonMeshVertex
10
432
20
-648
30
480
70
64
0
VERTEX
5
B844
100
AcDbEntity
8
SOLIDS
100
AcDbVertex
100
AcDbPolygonMeshVertex
10
432
20
-648
30
480
70
64
0
VERTEX
5
B845
100
AcDbEntity
8
SOLIDS
100
AcDbVertex
100
AcDbPolygonMeshVertex
10
148
20
-612
30
720
70
64
0
VERTEX
5
B846
100
AcDbEntity
8
SOLIDS
100
AcDbVertex
100
AcDbPolygonMeshVertex
10
152
20
-648
30
480
70
64
0
VERTEX
5
B847
100
AcDbEntity
8
SOLIDS
100
AcDbVertex
100
AcDbPolygonMeshVertex
10
152
20
-648
30
480
70
64
0
VERTEX
5
B848
100
AcDbEntity
8
SOLIDS
100
AcDbVertex
100
AcDbPolygonMeshVertex
10
148
20
-432
30
720
70
64
0
VERTEX
5
B849
100
AcDbEntity
8
SOLIDS
100
AcDbVertex
100
AcDbPolygonMeshVertex
10
152
20
-432
30
480
70
64
0
VERTEX
5
B850
100
AcDbEntity
8
SOLIDS
100
AcDbVertex
100
AcDbPolygonMeshVertex
10
152
20
-648
30
480
70
64
0
VERTEX
5
B851
100
AcDbEntity
8
SOLIDS
100
AcDbVertex
100
AcDbPolygonMeshVertex
10
408
20
-432
30
720
70
64
0
VERTEX
5
B852
100
AcDbEntity
8
SOLIDS
100
AcDbVertex
100
AcDbPolygonMeshVertex
10
432
20
-432
30
480
70
64
0
VERTEX
5
B853
100
AcDbEntity
8
SOLIDS
100
AcDbVertex
100
AcDbPolygonMeshVertex
10
432
20
-648
30
480
70
64
0
VERTEX
5
B854
100
AcDbEntity
8
SOLIDS
100
AcDbVertex
100
AcDbPolygonMeshVertex
10
408
20
-432
30
720
70
64
0
VERTEX
5
B855
100
AcDbEntity
8
SOLIDS
100
AcDbVertex
100
AcDbPolygonMeshVertex
10
408
20
-432
30
720
70
64
0
VERTEX
5
B856
100
AcDbEntity
8
SOLIDS
100
AcDbVertex
100
AcDbPolygonMeshVertex
10
408
20
-612
30
720
70
64
0
VERTEX
5
B857
100
AcDbEntity
8
SOLIDS
100
AcDbVertex
100
AcDbPolygonMeshVertex
10
148
20
-432
30
720
70
64
0
VERTEX
5
B858
100
AcDbEntity
8
SOLIDS
100
AcDbVertex
100
AcDbPolygonMeshVertex
10
148
20
-432
30
720
70
64
0
VERTEX
5
B859
100
AcDbEntity
8
SOLIDS
100
AcDbVertex
100
AcDbPolygonMeshVertex
10
148
20
-612
30
720
70
64
0
SEQEND
5
B860
100
AcDbEntity
8
SOLIDS
0
POLYLINE
5
B861
100
AcDbEntity
8
SOLIDS
100
AcDbPolygonMesh
66
1
10
0
20
0
30
0
70
16
71
6
72
3
0
VERTEX
5
B862
100
AcDbEntity
8
SOLIDS
100
AcDbVertex
100
AcDbPolygonMeshVertex
10
384
20
-576
30
960
70
64
0
VERTEX
5
B863
100
AcDbEntity
8
SOLIDS
100
AcDbVertex
100
AcDbPolygonMeshVertex
10
408
20
-612
30
720
70
64
0
VERTEX
5
B864
100
AcDbEntity
8
SOLIDS
100
AcDbVertex
100
AcDbPolygonMeshVertex
10
408
20
-612
30
720
70
64
0
VERTEX
5
B865
100
AcDbEntity
8
SOLIDS
100
AcDbVertex
100
AcDbPolygonMeshVertex
10
144
20
-576
30
960
70
64
0
VERTEX
5
B866
100
AcDbEntity
8
SOLIDS
100
AcDbVertex
100
AcDbPolygonMeshVertex
10
148
20
-612
30
720
70
64
0
VERTEX
5
B867
100
AcDbEntity
8
SOLIDS
100
AcDbVertex
100
AcDbPolygonMeshVertex
10
148
20
-612
30
720
70
64
0
VERTEX
5
B868
100
AcDbEntity
8
SOLIDS
100
AcDbVertex
100
AcDbPolygonMeshVertex
10
144
20
-432
30
960
70
64
0
VERTEX
5
B869
100
AcDbEntity
8
SOLIDS
100
AcDbVertex
100
AcDbPolygonMeshVertex
10
148
20
-432
30
720
70
64
0
VERTEX
5
B870
100
AcDbEntity
8
SOLIDS
100
AcDbVertex
100
AcDbPolygonMeshVertex
10
148
20
-612
30
720
70
64
0
VERTEX
5
B871
100
AcDbEntity
8
SOLIDS
100
AcDbVertex
100
AcDbPolygonMeshVertex
10
384
20
-432
30
960
70
64
0
VERTEX
5
B872
100
AcDbEntity
8
SOLIDS
100
AcDbVertex
100
AcDbPolygonMeshVertex
10
408
20
-432
30
720
70
64
0
VERTEX
5
B873
100
AcDbEntity
8
SOLIDS
100
AcDbVertex
100
AcDbPolygonMeshVertex
10
408
20
-612
30
720
70
64
0
VERTEX
5
B874
100
AcDbEntity
8
SOLIDS
100
AcDbVertex
100
AcDbPolygonMeshVertex
10
384
20
-432
30
960
70
64
0
VERTEX
5
B875
100
AcDbEntity
8
SOLIDS
100
AcDbVertex
100
AcDbPolygonMeshVertex
10
384
20
-432
30
960
70
64
0
VERTEX
5
B876
100
AcDbEntity
8
SOLIDS
100
AcDbVertex
100
AcDbPolygonMeshVertex
10
384
20
-576
30
960
70
64
0
VERTEX
5
B877
100
AcDbEntity
8
SOLIDS
100
AcDbVertex
100
AcDbPolygonMeshVertex
10
144
20
-432
30
960
70
64
0
VERTEX
5
B878
100
AcDbEntity
8
SOLIDS
100
AcDbVertex
100
AcDbPolygonMeshVertex
10
144
20
-432
30
960
70
64
0
VERTEX
5
B879
100
AcDbEntity
8
SOLIDS
100
AcDbVertex
100
AcDbPolygonMeshVertex
10
144
20
-576
30
960
70
64
0
SEQEND
5
B880
100
AcDbEntity
8
SOLIDS
0
POLYLINE
5
B881
100
AcDbEntity
8
SOLIDS
100
AcDbPolygonMesh
66
1
10
0
20
0
30
0
70
16
71
6
72
3
0
VERTEX
5
B882
100
AcDbEntity
8
SOLIDS
100
AcDbVertex
100
AcDbPolygonMeshVertex
10
456
20
-432
30
240
70
64
0
VERTEX
5
B883
100
AcDbEntity
8
SOLIDS
100
AcDbVertex
100
AcDbPolygonMeshVertex
10
480
20
-432
30
0
70
64
0
VERTEX
5
B884
100
AcDbEntity
8
SOLIDS
100
AcDbVertex
100
AcDbPolygonMeshVertex
10
480
20
-432
30
0
70
64
0
VERTEX
5
B885
100
AcDbEntity
8
SOLIDS
100
AcDbVertex
100
AcDbPolygonMeshVertex
10
156
20
-432
30
240
70
64
0
VERTEX
5
B886
100
AcDbEntity
8
SOLIDS
100
AcDbVertex
100
AcDbPolygonMeshVertex
10
160
20
-432
30
0
70
64
0
VERTEX
5
B887
100
AcDbEntity
8
SOLIDS
100
AcDbVertex
100
AcDbPolygonMeshVertex
10
160
20
-432
30
0
70
64
0
VERTEX
5
B888
100
AcDbEntity
8
SOLIDS
100
AcDbVertex
100
AcDbPolygonMeshVertex
10
156
20
-180
30
240
70
64
0
VERTEX
5
B889
100
AcDbEntity
8
SOLIDS
100
AcDbVertex
100
AcDbPolygonMeshVertex
10
160
20
-144
30
0
70
64
0
VERTEX
5
B890
100
AcDbEntity
8
SOLIDS
100
AcDbVertex
100
AcDbPolygonMeshVertex
10
160
20
-432
30
0
70
64
0
VERTEX
5
B891
100
AcDbEntity
8
SOLIDS
100
AcDbVertex
100
AcDbPolygonMeshVertex
10
456
20
-180
30
240
70
64
0
VERTEX
5
B892
100
AcDbEntity
8
SOLIDS
100
AcDbVertex
100
AcDbPolygonMeshVertex
10
480
20
-144
30
0
70
64
0
VERTEX
5
B893
100
AcDbEntity
8
SOLIDS
100
AcDbVertex
100
AcDbPolygonMeshVertex
10
480
20
-432
30
0
70
64
0
VERTEX
5
B894
100
AcDbEntity
8
SOLIDS
100
AcDbVertex
100
AcDbPolygonMeshVertex
10
456
20
-180
30
240
70
64
0
VERTEX
5
B895
100
AcDbEntity
8
SOLIDS
100
AcDbVertex
100
AcDbPolygonMeshVertex
10
456
20
-180
30
240
70
64
0
VERTEX
5
B896
100
AcDbEntity
8
SOLIDS
100
AcDbVertex
100
AcDbPolygonMeshVertex
10
456
20
-432
30
240
70
64
0
VERTEX
5
B897
100
AcDbEntity
8
SOLIDS
100
AcDbVertex
100
AcDbPolygonMeshVertex
10
156
20
-180
30
240
70
64
0
VERTEX
5
B898
100
AcDbEntity
8
SOLIDS
100
AcDbVertex
100
AcDbPolygonMeshVertex
10
156
20
-180
30
240
70
64
0
VERTEX
5
B899
100
AcDbEntity
8
SOLIDS
100
AcDbVertex
100
AcDbPolygonMeshVertex
10
156
20
-432
30
240
70
64
0
SEQEND
5
B900
100
AcDbEntity
8
SOLIDS
0
POLYLINE
5
B901
100
AcDbEntity
8
SOLIDS
100
AcDbPolygonMesh
66
1
10
0
20
0
30
0
70
16
71
6
72
3
0
VERTEX
5
B902
100
AcDbEntity
8
SOLIDS
100
AcDbVertex
100
AcDbPolygonMeshVertex
10
432
20
-432
30
480
70
64
0
VERTEX
5
B903
100
AcDbEntity
8
SOLIDS
100
AcDbVertex
100
AcDbPolygonMeshVertex
10
456
20
-432
30
240
70
64
0
VERTEX
5
B904
100
AcDbEntity
8
SOLIDS
100
AcDbVertex
100
AcDbPolygonMeshVertex
10
456
20
-432
30
240
70
64
0
VERTEX
5
B905
100
AcDbEntity
8
SOLIDS
100
AcDbVertex
100
AcDbPolygonMeshVertex
10
152
20
-432
30
480
70
64
0
VERTEX
5
B906
100
AcDbEntity
8
SOLIDS
100
AcDbVertex
100
AcDbPolygonMeshVertex
10
156
20
-432
30
240
70
64
0
VERTEX
5
B907
100
AcDbEntity
8
SOLIDS
100
AcDbVertex
100
AcDbPolygonMeshVertex
10
156
20
-432
30
240
70
64
0
VERTEX
5
B908
100
AcDbEntity
8
SOLIDS
100
AcDbVertex
100
AcDbPolygonMeshVertex
10
152
20
-216
30
480
70
64
0
VERTEX
5
B909
100
AcDbEntity
8
SOLIDS
100
AcDbVertex
100
AcDbPolygonMeshVertex
10
156
20
-180
30
240
70
64
0
VERTEX
5
B910
100
AcDbEntity
8
SOLIDS
100
AcDbVertex
100
AcDbPolygonMeshVertex
10
156
20
-432
30
240
70
64
0
VERTEX
5
B911
100
AcDbEntity
8
SOLIDS
100
AcDbVertex
100
AcDbPolygonMeshVertex
10
432
20
-216
30
480
70
64
0
VERTEX
5
B912
100
AcDbEntity
8
SOLIDS
100
AcDbVertex
100
AcDbPolygonMeshVertex
10
456
20
-180
30
240
70
64
0
VERTEX
5
B913
100
AcDbEntity
8
SOLIDS
100
AcDbVertex
100
AcDbPolygonMeshVertex
10
456
20
-432
30
240
70
64
0
VERTEX
5
B914
100
AcDbEntity
8
SOLIDS
100
AcDbVertex
100
AcDbPolygonMeshVertex
10
432
20
-216
30
480
70
64
0
VERTEX
5
B915
100
AcDbEntity
8
SOLIDS
100
AcDbVertex
100
AcDbPolygonMeshVertex
10
432
20
-216
30
480
70
64
0
VERTEX
5
B916
100
AcDbEntity
8
SOLIDS
100
AcDbVertex
100
AcDbPolygonMeshVertex
10
432
20
-432
30
480
70
64
0
VERTEX
5
B917
100
AcDbEntity
8
SOLIDS
100
AcDbVertex
100
AcDbPolygonMeshVertex
10
152
20
-216
30
480
70
64
0
VERTEX
5
B918
100
AcDbEntity
8
SOLIDS
100
AcDbVertex
100
AcDbPolygonMeshVertex
10
152
20
-216
30
480
70
64
0
VERTEX
5
B919
100
AcDbEntity
8
SOLIDS
100
AcDbVertex
100
AcDbPolygonMeshVertex
10
152
20
-432
30
480
70
64
0
SEQEND
5
B920
100
AcDbEntity
8
SOLIDS
0
POLYLINE
5
B921
100
AcDbEntity
8
SOLIDS
100
AcDbPolygonMesh
66
1
10
0
20
0
30
0
70
16
71
6
72
3
0
VERTEX
5
B922
100
AcDbEntity
8
SOLIDS
100
AcDbVertex
100
AcDbPolygonMeshVertex
10
408
20
-432
30
720
70
64
0
VERTEX
5
B923
100
AcDbEntity
8
SOLIDS
100
AcDbVertex
100
AcDbPolygonMeshVertex
10
432
20
-432
30
480
70
64
0
VERTEX
5
B924
100
AcDbEntity
8
SOLIDS
100
AcDbVertex
100
AcDbPolygonMeshVertex
10
432
20
-432
30
480
70
64
0
VERTEX
5
B925
100
AcDbEntity
8
SOLIDS
100
AcDbVertex
100
AcDbPolygonMeshVertex
10
148
20
-432
30
720
70
64
0
VERTEX
5
B926
100
AcDbEntity
8
SOLIDS
100
AcDbVertex
100
AcDbPolygonMeshVertex
10
152
20
-432
30
480
70
64
0
VERTEX
5
B927
100
AcDbEntity
8
SOLIDS
100
AcDbVertex
100
AcDbPolygonMeshVertex
10
152
20
-432
30
480
70
64
0
VERTEX
5
B928
100
AcDbEntity
8
SOLIDS
100
AcDbVertex
100
AcDbPolygonMeshVertex
10
148
20
-252
30
720
70
64
0
VERTEX
5
B929
100
AcDbEntity
8
SOLIDS
100
AcDbVertex
100
AcDbPolygonMeshVertex
10
152
20
-216
30
480
70
64
0
VERTEX
5
B930
100
AcDbEntity
8
SOLIDS
100
AcDbVertex
100
AcDbPolygonMeshVertex
10
152
20
-432
30
480
70
64
0
VERTEX
5
B931
100
AcDbEntity
8
SOLIDS
100
AcDbVertex
100
AcDbPolygonMeshVertex
10
408
20
-252
30
720
70
64
0
VERTEX
5
B932
100
AcDbEntity
8
SOLIDS
100
AcDbVertex
100
AcDbPolygonMeshVertex
10
432
20
-216
30
480
70
64
0
VERTEX
5
B933
100
AcDbEntity
8
SOLIDS
100
AcDbVertex
100
AcDbPolygonMeshVertex
10
432
20
-432
30
480
70
64
0
VERTEX
5
B934
100
AcDbEntity
8
SOLIDS
100
AcDbVertex
100
AcDbPolygonMeshVertex
10
408
20
-252
30
720
70
64
0
VERTEX
5
B935
100
AcDbEntity
8
SOLIDS
100
AcDbVertex
100
AcDbPolygonMeshVertex
10
408
20
-252
30
720
70
64
0
VERTEX
5
B936
100
AcDbEntity
8
SOLIDS
100
AcDbVertex
100
AcDbPolygonMeshVertex
10
408
20
-432
30
720
70
64
0
VERTEX
5
B937
100
AcDbEntity
8
SOLIDS
100
AcDbVertex
100
AcDbPolygonMeshVertex
10
148
20
-252
30
720
70
64
0
VERTEX
5
B938
100
AcDbEntity
8
SOLIDS
100
AcDbVertex
100
AcDbPolygonMeshVertex
10
148
20
-252
30
720
70
64
0
VERTEX
5
B939
100
AcDbEntity
8
SOLIDS
100
AcDbVertex
100
AcDbPolygonMeshVertex
10
148
20
-432
30
720
70
64
0
SEQEND
5
B940
100
AcDbEntity
8
SOLIDS
0
POLYLINE
5
B941
100
AcDbEntity
8
SOLIDS
100
AcDbPolygonMesh
66
1
10
0
20
0
30
0
70
16
71
6
72
3
0
VERTEX
5
B942
100
AcDbEntity
8
SOLIDS
100
AcDbVertex
100
AcDbPolygonMeshVertex
10
384
20
-432
30
960
70
64
0
VERTEX
5
B943
100
AcDbEntity
8
SOLIDS
100
AcDbVertex
100
AcDbPolygonMeshVertex
10
408
20
-432
30
720
70
64
0
VERTEX
5
B944
100
AcDbEntity
8
SOLIDS
100
AcDbVertex
100
AcDbPolygonMeshVertex
10
408
20
-432
30
720
70
64
0
VERTEX
5
B945
100
AcDbEntity
8
SOLIDS
100
AcDbVertex
100
AcDbPolygonMeshVertex
10
144
20
-432
30
960
70
64
0
VERTEX
5
B946
100
AcDbEntity
8
SOLIDS
100
AcDbVertex
100
AcDbPolygonMeshVertex
10
148
20
-432
30
720
70
64
0
VERTEX
5
B947
100
AcDbEntity
8
SOLIDS
100
AcDbVertex
100
AcDbPolygonMeshVertex
10
148
20
-432
30
720
70
64
0
VERTEX
5
B948
100
AcDbEntity
8
SOLIDS
100
AcDbVertex
100
AcDbPolygonMeshVertex
10
144
20
-288
30
960
70
64
0
VERTEX
5
B949
100
AcDbEntity
8
SOLIDS
100
AcDbVertex
100
AcDbPolygonMeshVertex
10
148
20
-252
30
720
70
64
0
VERTEX
5
B950
100
AcDbEntity
8
SOLIDS
100
AcDbVertex
100
AcDbPolygonMeshVertex
10
148
20
-432
30
720
70
64
0
VERTEX
5
B951
100
AcDbEntity
8
SOLIDS
100
AcDbVertex
100
AcDbPolygonMeshVertex
10
384
20
-288
30
960
70
64
0
VERTEX
5
B952
100
AcDbEntity
8
SOLIDS
100
AcDbVertex
100
AcDbPolygonMeshVertex
10
408
20
-252
30
720
70
64
0
VERTEX
5
B953
100
AcDbEntity
8
SOLIDS
100
AcDbVertex
100
AcDbPolygonMeshVertex
10
408
20
-432
30
720
70
64
0
VERTEX
5
B954
100
AcDbEntity
8
SOLIDS
100
AcDbVertex
100
AcDbPolygonMeshVertex
10
384
20
-288
30
960
70
64
0
VERTEX
5
B955
100
AcDbEntity
8
SOLIDS
100
AcDbVertex
100
AcDbPolygonMeshVertex
10
384
20
-288
30
960
70
64
0
VERTEX
5
B956
100
AcDbEntity
8
SOLIDS
100
AcDbVertex
100
AcDbPolygonMeshVertex
10
384
20
-432
30
960
70
64
0
VERTEX
5
B957
100
AcDbEntity
8
SOLIDS
100
AcDbVertex
100
AcDbPolygonMeshVertex
10
144
20
-288
30
960
70
64
0
VERTEX
5
B958
100
AcDbEntity
8
SOLIDS
100
AcDbVertex
100
AcDbPolygonMeshVertex
10
144
20
-288
30
960
70
64
0
VERTEX
5
B959
100
AcDbEntity
8
SOLIDS
100
AcDbVertex
100
AcDbPolygonMeshVertex
10
144
20
-432
30
960
70
64
0
SEQEND
5
B960
100
AcDbEntity
8
SOLIDS
0
POLYLINE
5
B961
100
AcDbEntity
8
SOLIDS
100
AcDbPolygonMesh
66
1
10
0
20
0
30
0
70
16
71
6
72
3
0
VERTEX
5
B962
100
AcDbEntity
8
SOLIDS
100
AcDbVertex
100
AcDbPolygonMeshVertex
10
456
20
-180
30
240
70
64
0
VERTEX
5
B963
100
AcDbEntity
8
SOLIDS
100
AcDbVertex
100
AcDbPolygonMeshVertex
10
480
20
-144
30
0
70
64
0
VERTEX
5
B964
100
AcDbEntity
8
SOLIDS
100
AcDbVertex
100
AcDbPolygonMeshVertex
10
480
20
-144
30
0
70
64
0
VERTEX
5
B965
100
AcDbEntity
8
SOLIDS
100
AcDbVertex
100
AcDbPolygonMeshVertex
10
156
20
-180
30
240
70
64
0
VERTEX
5
B966
100
AcDbEntity
8
SOLIDS
100
AcDbVertex
100
AcDbPolygonMeshVertex
10
160
20
-144
30
0
70
64
0
VERTEX
5
B967
100
AcDbEntity
8
SOLIDS
100
AcDbVertex
100
AcDbPolygonMeshVertex
10
160
20
-144
30
0
70
64
0
VERTEX
5
B968
100
AcDbEntity
8
SOLIDS
100
AcDbVertex
100
AcDbPolygonMeshVertex
10
156
20
72
30
240
70
64
0
VERTEX
5
B969
100
AcDbEntity
8
SOLIDS
100
AcDbVertex
100
AcDbPolygonMeshVertex
10
160
20
144
30
0
70
64
0
VERTEX
5
B970
100
AcDbEntity
8
SOLIDS
100
AcDbVertex
100
AcDbPolygonMeshVertex
10
160
20
-144
30
0
70
64
0
VERTEX
5
B971
100
AcDbEntity
8
SOLIDS
100
AcDbVertex
100
AcDbPolygonMeshVertex
10
456
20
72
30
240
70
64
0
VERTEX
5
B972
100
AcDbEntity
8
SOLIDS
100
AcDbVertex
100
AcDbPolygonMeshVertex
10
480
20
144
30
0
70
64
0
VERTEX
5
B973
100
AcDbEntity
8
SOLIDS
100
AcDbVertex
100
AcDbPolygonMeshVertex
10
480
20
-144
30
0
70
64
0
VERTEX
5
B974
100
AcDbEntity
8
SOLIDS
100
AcDbVertex
100
AcDbPolygonMeshVertex
10
456
20
72
30
240
70
64
0
VERTEX
5
B975
100
AcDbEntity
8
SOLIDS
100
AcDbVertex
100
AcDbPolygonMeshVertex
10
456
20
72
30
240
70
64
0
VERTEX
5
B976
100
AcDbEntity
8
SOLIDS
100
AcDbVertex
100
AcDbPolygonMeshVertex
10
456
20
-180
30
240
70
64
0
VERTEX
5
B977
100
AcDbEntity
8
SOLIDS
100
AcDbVertex
100
AcDbPolygonMeshVertex
10
156
20
72
30
240
70
64
0
VERTEX
5
B978
100
AcDbEntity
8
SOLIDS
100
AcDbVertex
100
AcDbPolygonMeshVertex
10
156
20
72
30
240
70
64
0
VERTEX
5
B979
100
AcDbEntity
8
SOLIDS
100
AcDbVertex
100
AcDbPolygonMeshVertex
10
156
20
-180
30
240
70
64
0
SEQEND
5
B980
100
AcDbEntity
8
SOLIDS
0
POLYLINE
5
B981
100
AcDbEntity
8
SOLIDS
100
AcDbPolygonMesh
66
1
10
0
20
0
30
0
70
16
71
6
72
3
0
VERTEX
5
B982
100
AcDbEntity
8
SOLIDS
100
AcDbVertex
100
AcDbPolygonMeshVertex
10
432
20
-216
30
480
70
64
0
VERTEX
5
B983
100
AcDbEntity
8
SOLIDS
100
AcDbVertex
100
AcDbPolygonMeshVertex
10
456
20
-180
30
240
70
64
0
VERTEX
5
B984
100
AcDbEntity
8
SOLIDS
100
AcDbVertex
100
AcDbPolygonMeshVertex
10
456
20
-180
30
240
70
64
0
VERTEX
5
B985
100
AcDbEntity
8
SOLIDS
100
AcDbVertex
100
AcDbPolygonMeshVertex
10
152
20
-216
30
480
70
64
0
VERTEX
5
B986
100
AcDbEntity
8
SOLIDS
100
AcDbVertex
100
AcDbPolygonMeshVertex
10
156
20
-180
30
240
70
64
0
VERTEX
5
B987
100
AcDbEntity
8
SOLIDS
100
AcDbVertex
100
AcDbPolygonMeshVertex
10
156
20
-180
30
240
70
64
0
VERTEX
5
B988
100
AcDbEntity
8
SOLIDS
100
AcDbVertex
100
AcDbPolygonMeshVertex
10
152
20
0
30
480
70
64
0
VERTEX
5
B989
100
AcDbEntity
8
SOLIDS
100
AcDbVertex
100
AcDbPolygonMeshVertex
10
156
20
72
30
240
70
64
0
VERTEX
5
B990
100
AcDbEntity
8
SOLIDS
100
AcDbVertex
100
AcDbPolygonMeshVertex
10
156
20
-180
30
240
70
64
0
VERTEX
5
B991
100
AcDbEntity
8
SOLIDS
100
AcDbVertex
100
AcDbPolygonMeshVertex
10
432
20
0
30
480
70
64
0
VERTEX
5
B992
100
AcDbEntity
8
SOLIDS
100
AcDbVertex
100
AcDbPolygonMeshVertex
10
456
20
72
30
240
70
64
0
VERTEX
5
B993
100
AcDbEntity
8
SOLIDS
100
AcDbVertex
100
AcDbPolygonMeshVertex
10
456
20
-180
30
240
70
64
0
VERTEX
5
B994
100
AcDbEntity
8
SOLIDS
100
AcDbVertex
100
AcDbPolygonMeshVertex
10
432
20
0
30
480
70
64
0
VERTEX
5
B995
100
AcDbEntity
8
SOLIDS
100
AcDbVertex
100
AcDbPolygonMeshVertex
10
432
20
0
30
480
70
64
0
VERTEX
5
B996
100
AcDbEntity
8
SOLIDS
100
AcDbVertex
100
AcDbPolygonMeshVertex
10
432
20
-216
30
480
70
64
0
VERTEX
5
B997
100
AcDbEntity
8
SOLIDS
100
AcDbVertex
100
AcDbPolygonMeshVertex
10
152
20
0
30
480
70
64
0
VERTEX
5
B998
100
AcDbEntity
8
SOLIDS
100
AcDbVertex
100
AcDbPolygonMeshVertex
10
152
20
0
30
480
70
64
0
VERTEX
5
B999
100
AcDbEntity
8
SOLIDS
100
AcDbVertex
100
AcDbPolygonMeshVertex
10
152
20
-216
30
480
70
64
0
SEQEND
5
B1000
100
AcDbEntity
8
SOLIDS
0
POLYLINE
5
B1001
100
AcDbEntity
8
SOLIDS
100
AcDbPolygonMesh
66
1
10
0
20
0
30
0
70
16
71
6
72
3
0
VERTEX
5
B1002
100
AcDbEntity
8
SOLIDS
100
AcDbVertex
100
AcDbPolygonMeshVertex
10
408
20
-252
30
720
70
64
0
VERTEX
5
B1003
100
AcDbEntity
8
SOLIDS
100
AcDbVertex
100
AcDbPolygonMeshVertex
10
432
20
-216
30
480
70
64
0
VERTEX
5
B1004
100
AcDbEntity
8
SOLIDS
100
AcDbVertex
100
AcDbPolygonMeshVertex
10
432
20
-216
30
480
70
64
0
VERTEX
5
B1005
100
AcDbEntity
8
SOLIDS
100
AcDbVertex
100
AcDbPolygonMeshVertex
10
148
20
-252
30
720
70
64
0
VERTEX
5
B1006
100
AcDbEntity
8
SOLIDS
100
AcDbVertex
100
AcDbPolygonMeshVertex
10
152
20
-216
30
480
70
64
0
VERTEX
5
B1007
100
AcDbEntity
8
SOLIDS
100
AcDbVertex
100
AcDbPolygonMeshVertex
10
152
20
-216
30
480
70
64
0
VERTEX
5
B1008
100
AcDbEntity
8
SOLIDS
100
AcDbVertex
100
AcDbPolygonMeshVertex
10
148
20
-72
30
720
70
64
0
VERTEX
5
B1009
100
AcDbEntity
8
SOLIDS
100
AcDbVertex
100
AcDbPolygonMeshVertex
10
152
20
0
30
480
70
64
0
VERTEX
5
B1010
100
AcDbEntity
8
SOLIDS
100
AcDbVertex
100
AcDbPolygonMeshVertex
10
152
20
-216
30
480
70
64
0
VERTEX
5
B1011
100
AcDbEntity
8
SOLIDS
100
AcDbVertex
100
AcDbPolygonMeshVertex
10
408
20
-72
30
720
70
64
0
VERTEX
5
B1012
100
AcDbEntity
8
SOLIDS
100
AcDbVertex
100
AcDbPolygonMeshVertex
10
432
20
0
30
480
70
64
0
VERTEX
5
B1013
100
AcDbEntity
8
SOLIDS
100
AcDbVertex
100
AcDbPolygonMeshVertex
10
432
20
-216
30
480
70
64
0
VERTEX
5
B1014
100
AcDbEntity
8
SOLIDS
100
AcDbVertex
100
AcDbPolygonMeshVertex
10
408
20
-72
30
720
70
64
0
VERTEX
5
B1015
100
AcDbEntity
8
SOLIDS
100
AcDbVertex
100
AcDbPolygonMeshVertex
10
408
20
-72
30
720
70
64
0
VERTEX
5
B1016
100
AcDbEntity
8
SOLIDS
100
AcDbVertex
100
AcDbPolygonMeshVertex
10
408
20
-252
30
720
70
64
0
VERTEX
5
B1017
100
AcDbEntity
8
SOLIDS
100
AcDbVertex
100
AcDbPolygonMeshVertex
10
148
20
-72
30
720
70
64
0
VERTEX
5
B1018
100
AcDbEntity
8
SOLIDS
100
AcDbVertex
100
AcDbPolygonMeshVertex
10
148
20
-72
30
720
70
64
0
VERTEX
5
B1019
100
AcDbEntity
8
SOLIDS
100
AcDbVertex
100
AcDbPolygonMeshVertex
10
148
20
-252
30
720
70
64
0
SEQEND
5
B1020
100
AcDbEntity
8
SOLIDS
0
POLYLINE
5
B1021
100
AcDbEntity
8
SOLIDS
100
AcDbPolygonMesh
66
1
10
0
20
0
30
0
70
16
71
6
72
3
0
VERTEX
5
B1022
100
AcDbEntity
8
SOLIDS
100
AcDbVertex
100
AcDbPolygonMeshVertex
10
384
20
-288
30
960
70
64
0
VERTEX
5
B1023
100
AcDbEntity
8
SOLIDS
100
AcDbVertex
100
AcDbPolygonMeshVertex
10
408
20
-252
30
720
70
64
0
VERTEX
5
B1024
100
AcDbEntity
8
SOLIDS
100
AcDbVertex
100
AcDbPolygonMeshVertex
10
408
20
-252
30
720
70
64
0
VERTEX
5
B1025
100
AcDbEntity
8
SOLIDS
100
AcDbVertex
100
AcDbPolygonMeshVertex
10
144
20
-288
30
960
70
64
0
VERTEX
5
B1026
100
AcDbEntity
8
SOLIDS
100
AcDbVertex
100
AcDbPolygonMeshVertex
10
148
20
-252
30
720
70
64
0
VERTEX
5
B1027
100
AcDbEntity
8
SOLIDS
100
AcDbVertex
100
AcDbPolygonMeshVertex
10
148
20
-252
30
720
70
64
0
VERTEX
5
B1028
100
AcDbEntity
8
SOLIDS
100
AcDbVertex
100
AcDbPolygonMeshVertex
10
144
20
-144
30
960
70
64
0
VERTEX
5
B1029
100
AcDbEntity
8
SOLIDS
100
AcDbVertex
100
AcDbPolygonMeshVertex
10
148
20
-72
30
720
70
64
0
VERTEX
5
B1030
100
AcDbEntity
8
SOLIDS
100
AcDbVertex
100
AcDbPolygonMeshVertex
10
148
20
-252
30
720
70
64
0
VERTEX
5
B1031
100
AcDbEntity
8
SOLIDS
100
AcDbVertex
100
AcDbPolygonMeshVertex
10
384
20
-144
30
960
70
64
0
VERTEX
5
B1032
100
AcDbEntity
8
SOLIDS
100
AcDbVertex
100
AcDbPolygonMeshVertex
10
408
20
-72
30
720
70
64
0
VERTEX
5
B1033
100
AcDbEntity
8
SOLIDS
100
AcDbVertex
100
AcDbPolygonMeshVertex
10
408
20
-252
30
720
70
64
0
VERTEX
5
B1034
100
AcDbEntity
8
SOLIDS
100
AcDbVertex
100
AcDbPolygonMeshVertex
10
384
20
-144
30
960
70
64
0
VERTEX
5
B1035
100
AcDbEntity
8
SOLIDS
100
AcDbVertex
100
AcDbPolygonMeshVertex
10
384
20
-144
30
960
70
64
0
VERTEX
5
B1036
100
AcDbEntity
8
SOLIDS
100
AcDbVertex
100
AcDbPolygonMeshVertex
10
384
20
-288
30
960
70
64
0
VERTEX
5
B1037
100
AcDbEntity
8
SOLIDS
100
AcDbVertex
100
AcDbPolygonMeshVertex
10
144
20
-144
30
960
70
64
0
VERTEX
5
B1038
100
AcDbEntity
8
SOLIDS
100
AcDbVertex
100
AcDbPolygonMeshVertex
10
144
20
-144
30
960
70
64
0
VERTEX
5
B1039
100
AcDbEntity
8
SOLIDS
100
AcDbVertex
100
AcDbPolygonMeshVertex
10
144
20
-288
30
960
70
64
0
SEQEND
5
B1040
100
AcDbEntity
8
SOLIDS
0
POLYLINE
5
B1041
100
AcDbEntity
8
SOLIDS
100
AcDbPolygonMesh
66
1
10
0
20
0
30
0
70
16
71
6
72
3
0
VERTEX
5
B1042
100
AcDbEntity
8
SOLIDS
100
AcDbVertex
100
AcDbPolygonMeshVertex
10
456
20
72
30
240
70
64
0
VERTEX
5
B1043
100
AcDbEntity
8
SOLIDS
100
AcDbVertex
100
AcDbPolygonMeshVertex
10
480
20
144
30
0
70
64
0
VERTEX
5
B1044
100
AcDbEntity
8
SOLIDS
100
AcDbVertex
100
AcDbPolygonMeshVertex
10
480
20
144
30
0
70
64
0
VERTEX
5
B1045
100
AcDbEntity
8
SOLIDS
100
AcDbVertex
100
AcDbPolygonMeshVertex
10
156
20
72
30
240
70
64
0
VERTEX
5
B1046
100
AcDbEntity
8
SOLIDS
100
AcDbVertex
100
AcDbPolygonMeshVertex
10
160
20
144
30
0
70
64
0
VERTEX
5
B1047
100
AcDbEntity
8
SOLIDS
100
AcDbVertex
100
AcDbPolygonMeshVertex
10
160
20
144
30
0
70
64
0
VERTEX
5
B1048
100
AcDbEntity
8
SOLIDS
100
AcDbVertex
100
AcDbPolygonMeshVertex
10
156
20
324
30
240
70
64
0
VERTEX
5
B1049
100
AcDbEntity
8
SOLIDS
100
AcDbVertex
100
AcDbPolygonMeshVertex
10
160
20
432
30
0
70
64
0
VERTEX
5
B1050
100
AcDbEntity
8
SOLIDS
100
AcDbVertex
100
AcDbPolygonMeshVertex
10
160
20
144
30
0
70
64
0
VERTEX
5
B1051
100
AcDbEntity
8
SOLIDS
100
AcDbVertex
100
AcDbPolygonMeshVertex
10
456
20
324
30
240
70
64
0
VERTEX
5
B1052
100
AcDbEntity
8
SOLIDS
100
AcDbVertex
100
AcDbPolygonMeshVertex
10
480
20
432
30
0
70
64
0
VERTEX
5
B1053
100
AcDbEntity
8
SOLIDS
100
AcDbVertex
100
AcDbPolygonMeshVertex
10
480
20
144
30
0
70
64
0
VERTEX
5
B1054
100
AcDbEntity
8
SOLIDS
100
AcDbVertex
100
AcDbPolygonMeshVertex
10
456
20
324
30
240
70
64
0
VERTEX
5
B1055
100
AcDbEntity
8
SOLIDS
100
AcDbVertex
100
AcDbPolygonMeshVertex
10
456
20
324
30
240
70
64
0
VERTEX
5
B1056
100
AcDbEntity
8
SOLIDS
100
AcDbVertex
100
AcDbPolygonMeshVertex
10
456
20
72
30
240
70
64
0
VERTEX
5
B1057
100
AcDbEntity
8
SOLIDS
100
AcDbVertex
100
AcDbPolygonMeshVertex
10
156
20
324
30
240
70
64
0
VERTEX
5
B1058
100
AcDbEntity
8
SOLIDS
100
AcDbVertex
100
AcDbPolygonMeshVertex
10
156
20
324
30
240
70
64
0
VERTEX
5
B1059
100
AcDbEntity
8
SOLIDS
100
AcDbVertex
100
AcDbPolygonMeshVertex
10
156
20
72
30
240
70
64
0
SEQEND
5
B1060
100
AcDbEntity
8
SOLIDS
0
POLYLINE
5
B1061
100
AcDbEntity
8
SOLIDS
100
AcDbPolygonMesh
66
1
10
0
20
0
30
0
70
16
71
6
72
3
0
VERTEX
5
B1062
100
AcDbEntity
8
SOLIDS
100
AcDbVertex
100
AcDbPolygonMeshVertex
10
432
20
0
30
480
70
64
0
VERTEX
5
B1063
100
AcDbEntity
8
SOLIDS
100
AcDbVertex
100
AcDbPolygonMeshVertex
10
456
20
72
30
240
70
64
0
VERTEX
5
B1064
100
AcDbEntity
8
SOLIDS
100
AcDbVertex
100
AcDbPolygonMeshVertex
10
456
20
72
30
240
70
64
0
VERTEX
5
B1065
100
AcDbEntity
8
SOLIDS
100
AcDbVertex
100
AcDbPolygonMeshVertex
10
152
20
0
30
480
70
64
0
VERTEX
5
B1066
100
AcDbEntity
8
SOLIDS
100
AcDbVertex
100
AcDbPolygonMeshVertex
10
156
20
72
30
240
70
64
0
VERTEX
5
B1067
100
AcDbEntity
8
SOLIDS
100
AcDbVertex
100
AcDbPolygonMeshVertex
10
156
20
72
30
240
70
64
0
VERTEX
5
B1068
100
AcDbEntity
8
SOLIDS
100
AcDbVertex
100
AcDbPolygonMeshVertex
10
152
20
216
30
480
70
64
0
VERTEX
5
B1069
100
AcDbEntity
8
SOLIDS
100
AcDbVertex
100
AcDbPolygonMeshVertex
10
156
20
324
30
240
70
64
0
VERTEX
5
B1070
100
AcDbEntity
8
SOLIDS
100
AcDbVertex
100
AcDbPolygonMeshVertex
10
156
20
72
30
240
70
64
0
VERTEX
5
B1071
100
AcDbEntity
8
SOLIDS
100
AcDbVertex
100
AcDbPolygonMeshVertex
10
432
20
216
30
480
70
64
0
VERTEX
5
B1072
100
AcDbEntity
8
SOLIDS
100
AcDbVertex
100
AcDbPolygonMeshVertex
10
456
20
324
30
240
70
64
0
VERTEX
5
B1073
100
AcDbEntity
8
SOLIDS
100
AcDbVertex
100
AcDbPolygonMeshVertex
10
456
20
72
30
240
70
64
0
VERTEX
5
B1074
100
AcDbEntity
8
SOLIDS
100
AcDbVertex
100
AcDbPolygonMeshVertex
10
432
20
216
30
480
70
64
0
VERTEX
5
B1075
100
AcDbEntity
8
SOLIDS
100
AcDbVertex
100
AcDbPolygonMeshVertex
10
432
20
216
30
480
70
64
0
VERTEX
5
B1076
100
AcDbEntity
8
SOLIDS
100
AcDbVertex
100
AcDbPolygonMeshVertex
10
432
20
0
30
480
70
64
0
VERTEX
5
B1077
100
AcDbEntity
8
SOLIDS
100
AcDbVertex
100
AcDbPolygonMeshVertex
10
152
20
216
30
480
70
64
0
VERTEX
5
B1078
100
AcDbEntity
8
SOLIDS
100
AcDbVertex
100
AcDbPolygonMeshVertex
10
152
20
216
30
480
70
64
0
VERTEX
5
B1079
100
AcDbEntity
8
SOLIDS
100
AcDbVertex
100
AcDbPolygonMeshVertex
10
152
20
0
30
480
70
64
0
SEQEND
5
B1080
100
AcDbEntity
8
SOLIDS
0
POLYLINE
5
B1081
100
AcDbEntity
8
SOLIDS
100
AcDbPolygonMesh
66
1
10
0
20
0
30
0
70
16
71
6
72
3
0
VERTEX
5
B1082
100
AcDbEntity
8
SOLIDS
100
AcDbVertex
100
AcDbPolygonMeshVertex
10
408
20
-72
30
720
70
64
0
VERTEX
5
B1083
100
AcDbEntity
8
SOLIDS
100
AcDbVertex
100
AcDbPolygonMeshVertex
10
432
20
0
30
480
70
64
0
VERTEX
5
B1084
100
AcDbEntity
8
SOLIDS
100
AcDbVertex
100
AcDbPolygonMeshVertex
10
432
20
0
30
480
70
64
0
VERTEX
5
B1085
100
AcDbEntity
8
SOLIDS
100
AcDbVertex
100
AcDbPolygonMeshVertex
10
148
20
-72
30
720
70
64
0
VERTEX
5
B1086
100
AcDbEntity
8
SOLIDS
100
AcDbVertex
100
AcDbPolygonMeshVertex
10
152
20
0
30
480
70
64
0
VERTEX
5
B1087
100
AcDbEntity
8
SOLIDS
100
AcDbVertex
100
AcDbPolygonMeshVertex
10
152
20
0
30
480
70
64
0
VERTEX
5
B1088
100
AcDbEntity
8
SOLIDS
100
AcDbVertex
100
AcDbPolygonMeshVertex
10
148
20
108
30
720
70
64
0
VERTEX
5
B1089
100
AcDbEntity
8
SOLIDS
100
AcDbVertex
100
AcDbPolygonMeshVertex
10
152
20
216
30
480
70
64
0
VERTEX
5
B1090
100
AcDbEntity
8
SOLIDS
100
AcDbVertex
100
AcDbPolygonMeshVertex
10
152
20
0
30
480
70
64
0
VERTEX
5
B1091
100
AcDbEntity
8
SOLIDS
100
AcDbVertex
100
AcDbPolygonMeshVertex
10
408
20
108
30
720
70
64
0
VERTEX
5
B1092
100
AcDbEntity
8
SOLIDS
100
AcDbVertex
100
AcDbPolygonMeshVertex
10
432
20
216
30
480
70
64
0
VERTEX
5
B1093
100
AcDbEntity
8
SOLIDS
100
AcDbVertex
100
AcDbPolygonMeshVertex
10
432
20
0
30
480
70
64
0
VERTEX
5
B1094
100
AcDbEntity
8
SOLIDS
100
AcDbVertex
100
AcDbPolygonMeshVertex
10
408
20
108
30
720
70
64
0
VERTEX
5
B1095
100
AcDbEntity
8
SOLIDS
100
AcDbVertex
100
AcDbPolygonMeshVertex
10
408
20
108
30
720
70
64
0
VERTEX
5
B1096
100
AcDbEntity
8
SOLIDS
100
AcDbVertex
100
AcDbPolygonMeshVertex
10
408
20
-72
30
720
70
64
0
VERTEX
5
B1097
100
AcDbEntity
8
SOLIDS
100
AcDbVertex
100
AcDbPolygonMeshVertex
10
148
20
108
30
720
70
64
0
VERTEX
5
B1098
100
AcDbEntity
8
SOLIDS
100
AcDbVertex
100
AcDbPolygonMeshVertex
10
148
20
108
30
720
70
64
0
VERTEX
5
B1099
100
AcDbEntity
8
SOLIDS
100
AcDbVertex
100
AcDbPolygonMeshVertex
10
148
20
-72
30
720
70
64
0
SEQEND
5
B1100
100
AcDbEntity
8
SOLIDS
0
POLYLINE
5
B1101
100
AcDbEntity
8
SOLIDS
100
AcDbPolygonMesh
66
1
10
0
20
0
30
0
70
16
71
6
72
3
0
VERTEX
5
B1102
100
AcDbEntity
8
SOLIDS
100
AcDbVertex
100
AcDbPolygonMeshVertex
10
384
20
-144
30
960
70
64
0
VERTEX
5
B1103
100
AcDbEntity
8
SOLIDS
100
AcDbVertex
100
AcDbPolygonMeshVertex
10
408
20
-72
30
720
70
64
0
VERTEX
5
B1104
100
AcDbEntity
8
SOLIDS
100
AcDbVertex
100
AcDbPolygonMeshVertex
10
408
20
-72
30
720
70
64
0
VERTEX
5
B1105
100
AcDbEntity
8
SOLIDS
100
AcDbVertex
100
AcDbPolygonMeshVertex
10
144
20
-144
30
960
70
64
0
VERTEX
5
B1106
100
AcDbEntity
8
SOLIDS
100
AcDbVertex
100
AcDbPolygonMeshVertex
10
148
20
-72
30
720
70
64
0
VERTEX
5
B1107
100
AcDbEntity
8
SOLIDS
100
AcDbVertex
100
AcDbPolygonMeshVertex
10
148
20
-72
30
720
70
64
0
VERTEX
5
B1108
100
AcDbEntity
8
SOLIDS
100
AcDbVertex
100
AcDbPolygonMeshVertex
10
144
20
0
30
960
70
64
0
VERTEX
5
B1109
100
AcDbEntity
8
SOLIDS
100
AcDbVertex
100
AcDbPolygonMeshVertex
10
148
20
108
30
720
70
64
0
VERTEX
5
B1110
100
AcDbEntity
8
SOLIDS
100
AcDbVertex
100
AcDbPolygonMeshVertex
10
148
20
-72
30
720
70
64
0
VERTEX
5
B1111
100
AcDbEntity
8
SOLIDS
100
AcDbVertex
100
AcDbPolygonMeshVertex
10
384
20
0
30
960
70
64
0
VERTEX
5
B1112
100
AcDbEntity
8
SOLIDS
100
AcDbVertex
100
AcDbPolygonMeshVertex
10
408
20
108
30
720
70
64
0
VERTEX
5
B1113
100
AcDbEntity
8
SOLIDS
100
AcDbVertex
100
AcDbPolygonMeshVertex
10
408
20
-72
30
720
70
64
0
VERTEX
5
B1114
100
AcDbEntity
8
SOLIDS
100
AcDbVertex
100
AcDbPolygonMeshVertex
10
384
20
0
30
960
70
64
0
VERTEX
5
B1115
100
AcDbEntity
8
SOLIDS
100
AcDbVertex
100
AcDbPolygonMeshVertex
10
384
20
0
30
960
70
64
0
VERTEX
5
B1116
100
AcDbEntity
8
SOLIDS
100
AcDbVertex
100
AcDbPolygonMeshVertex
10
384
20
-144
30
960
70
64
0
VERTEX
5
B1117
100
AcDbEntity
8
SOLIDS
100
AcDbVertex
100
AcDbPolygonMeshVertex
10
144
20
0
30
960
70
64
0
VERTEX
5
B1118
100
AcDbEntity
8
SOLIDS
100
AcDbVertex
100
AcDbPolygonMeshVertex
10
144
20
0
30
960
70
64
0
VERTEX
5
B1119
100
AcDbEntity
8
SOLIDS
100
AcDbVertex
100
AcDbPolygonMeshVertex
10
144
20
-144
30
960
70
64
0
SEQEND
5
B1120
100
AcDbEntity
8
SOLIDS
0
POLYLINE
5
B1121
100
AcDbEntity
8
SOLIDS
100
AcDbPolygonMesh
66
1
10
0
20
0
30
0
70
16
71
6
72
3
0
VERTEX
5
B1122
100
AcDbEntity
8
SOLIDS
100
AcDbVertex
100
AcDbPolygonMeshVertex
10
456
20
324
30
240
70
64
0
VERTEX
5
B1123
100
AcDbEntity
8
SOLIDS
100
AcDbVertex
100
AcDbPolygonMeshVertex
10
480
20
432
30
0
70
64
0
VERTEX
5
B1124
100
AcDbEntity
8
SOLIDS
100
AcDbVertex
100
AcDbPolygonMeshVertex
10
480
20
432
30
0
70
64
0
VERTEX
5
B1125
100
AcDbEntity
8
SOLIDS
100
AcDbVertex
100
AcDbPolygonMeshVertex
10
156
20
324
30
240
70
64
0
VERTEX
5
B1126
100
AcDbEntity
8
SOLIDS
100
AcDbVertex
100
AcDbPolygonMeshVertex
10
160
20
432
30
0
70
64
0
VERTEX
5
B1127
100
AcDbEntity
8
SOLIDS
100
AcDbVertex
100
AcDbPolygonMeshVertex
10
160
20
432
30
0
70
64
0
VERTEX
5
B1128
100
AcDbEntity
8
SOLIDS
100
AcDbVertex
100
AcDbPolygonMeshVertex
10
156
20
576
30
240
70
64
0
VERTEX
5
B1129
100
AcDbEntity
8
SOLIDS
100
AcDbVertex
100
AcDbPolygonMeshVertex
10
160
20
720
30
0
70
64
0
VERTEX
5
B1130
100
AcDbEntity
8
SOLIDS
100
AcDbVertex
100
AcDbPolygonMeshVertex
10
160
20
432
30
0
70
64
0
VERTEX
5
B1131
100
AcDbEntity
8
SOLIDS
100
AcDbVertex
100
AcDbPolygonMeshVertex
10
456
20
576
30
240
70
64
0
VERTEX
5
B1132
100
AcDbEntity
8
SOLIDS
100
AcDbVertex
100
AcDbPolygonMeshVertex
10
480
20
720
30
0
70
64
0
VERTEX
5
B1133
100
AcDbEntity
8
SOLIDS
100
AcDbVertex
100
AcDbPolygonMeshVertex
10
480
20
432
30
0
70
64
0
VERTEX
5
B1134
100
AcDbEntity
8
SOLIDS
100
AcDbVertex
100
AcDbPolygonMeshVertex
10
456
20
576
30
240
70
64
0
VERTEX
5
B1135
100
AcDbEntity
8
SOLIDS
100
AcDbVertex
100
AcDbPolygonMeshVertex
10
456
20
576
30
240
70
64
0
VERTEX
5
B1136
100
AcDbEntity
8
SOLIDS
100
AcDbVertex
100
AcDbPolygonMeshVertex
10
456
20
324
30
240
70
64
0
VERTEX
5
B1137
100
AcDbEntity
8
SOLIDS
100
AcDbVertex
100
AcDbPolygonMeshVertex
10
156
20
576
30
240
70
64
0
VERTEX
5
B1138
100
AcDbEntity
8
SOLIDS
100
AcDbVertex
100
AcDbPolygonMeshVertex
10
156
20
576
30
240
70
64
0
VERTEX
5
B1139
100
AcDbEntity
8
SOLIDS
100
AcDbVertex
100
AcDbPolygonMeshVertex
10
156
20
324
30
240
70
64
0
SEQEND
5
B1140
100
AcDbEntity
8
SOLIDS
0
POLYLINE
5
B1141
100
AcDbEntity
8
SOLIDS
100
AcDbPolygonMesh
66
1
10
0
20
0
30
0
70
16
71
6
72
3
0
VERTEX
5
B1142
100
AcDbEntity
8
SOLIDS
100
AcDbVertex
100
AcDbPolygonMeshVertex
10
432
20
216
30
480
70
64
0
VERTEX
5
B1143
100
AcDbEntity
8
SOLIDS
100
AcDbVertex
100
AcDbPolygonMeshVertex
10
456
20
324
30
240
70
64
0
VERTEX
5
B1144
100
AcDbEntity
8
SOLIDS
100
AcDbVertex
100
AcDbPolygonMeshVertex
10
456
20
324
30
240
70
64
0
VERTEX
5
B1145
100
AcDbEntity
8
SOLIDS
100
AcDbVertex
100
AcDbPolygonMeshVertex
10
152
20
216
30
480
70
64
0
VERTEX
5
B1146
100
AcDbEntity
8
SOLIDS
100
AcDbVertex
100
AcDbPolygonMeshVertex
10
156
20
324
30
240
70
64
0
VERTEX
5
B1147
100
AcDbEntity
8
SOLIDS
100
AcDbVertex
100
AcDbPolygonMeshVertex
10
156
20
324
30
240
70
64
0
VERTEX
5
B1148
100
AcDbEntity
8
SOLIDS
100
AcDbVertex
100
AcDbPolygonMeshVertex
10
152
20
432
30
480
70
64
0
VERTEX
5
B1149
100
AcDbEntity
8
SOLIDS
100
AcDbVertex
100
AcDbPolygonMeshVertex
10
156
20
576
30
240
70
64
0
VERTEX
5
B1150
100
AcDbEntity
8
SOLIDS
100
AcDbVertex
100
AcDbPolygonMeshVertex
10
156
20
324
30
240
70
64
0
VERTEX
5
B1151
100
AcDbEntity
8
SOLIDS
100
AcDbVertex
100
AcDbPolygonMeshVertex
10
432
20
432
30
480
70
64
0
VERTEX
5
B1152
100
AcDbEntity
8
SOLIDS
100
AcDbVertex
100
AcDbPolygonMeshVertex
10
456
20
576
30
240
70
64
0
VERTEX
5
B1153
100
AcDbEntity
8
SOLIDS
100
AcDbVertex
100
AcDbPolygonMeshVertex
10
456
20
324
30
240
70
64
0
VERTEX
5
B1154
100
AcDbEntity
8
SOLIDS
100
AcDbVertex
100
AcDbPolygonMeshVertex
10
432
20
432
30
480
70
64
0
VERTEX
5
B1155
100
AcDbEntity
8
SOLIDS
100
AcDbVertex
100
AcDbPolygonMeshVertex
10
432
20
432
30
480
70
64
0
VERTEX
5
B1156
100
AcDbEntity
8
SOLIDS
100
AcDbVertex
100
AcDbPolygonMeshVertex
10
432
20
216
30
480
70
64
0
VERTEX
5
B1157
100
AcDbEntity
8
SOLIDS
100
AcDbVertex
100
AcDbPolygonMeshVertex
10
152
20
432
30
480
70
64
0
VERTEX
5
B1158
100
AcDbEntity
8
SOLIDS
100
AcDbVertex
100
AcDbPolygonMeshVertex
10
152
20
432
30
480
70
64
0
VERTEX
5
B1159
100
AcDbEntity
8
SOLIDS
100
AcDbVertex
100
AcDbPolygonMeshVertex
10
152
20
216
30
480
70
64
0
SEQEND
5
B1160
100
AcDbEntity
8
SOLIDS
0
POLYLINE
5
B1161
100
AcDbEntity
8
SOLIDS
100
AcDbPolygonMesh
66
1
10
0
20
0
30
0
70
16
71
6
72
3
0
VERTEX
5
B1162
100
AcDbEntity
8
SOLIDS
100
AcDbVertex
100
AcDbPolygonMeshVertex
10
408
20
108
30
720
70
64
0
VERTEX
5
B1163
100
AcDbEntity
8
SOLIDS
100
AcDbVertex
100
AcDbPolygonMeshVertex
10
432
20
216
30
480
70
64
0
VERTEX
5
B1164
100
AcDbEntity
8
SOLIDS
100
AcDbVertex
100
AcDbPolygonMeshVertex
10
432
20
216
30
480
70
64
0
VERTEX
5
B1165
100
AcDbEntity
8
SOLIDS
100
AcDbVertex
100
AcDbPolygonMeshVertex
10
148
20
108
30
720
70
64
0
VERTEX
5
B1166
100
AcDbEntity
8
SOLIDS
100
AcDbVertex
100
AcDbPolygonMeshVertex
10
152
20
216
30
480
70
64
0
VERTEX
5
B1167
100
AcDbEntity
8
SOLIDS
100
AcDbVertex
100
AcDbPolygonMeshVertex
10
152
20
216
30
480
70
64
0
VERTEX
5
B1168
100
AcDbEntity
8
SOLIDS
100
AcDbVertex
100
AcDbPolygonMeshVertex
10
148
20
288
30
720
70
64
0
VERTEX
5
B1169
100
AcDbEntity
8
SOLIDS
100
AcDbVertex
100
AcDbPolygonMeshVertex
10
152
20
432
30
480
70
64
0
VERTEX
5
B1170
100
AcDbEntity
8
SOLIDS
100
AcDbVertex
100
AcDbPolygonMeshVertex
10
152
20
216
30
480
70
64
0
VERTEX
5
B1171
100
AcDbEntity
8
SOLIDS
100
AcDbVertex
100
AcDbPolygonMeshVertex
10
408
20
288
30
720
70
64
0
VERTEX
5
B1172
100
AcDbEntity
8
SOLIDS
100
AcDbVertex
100
AcDbPolygonMeshVertex
10
432
20
432
30
480
70
64
0
VERTEX
5
B1173
100
AcDbEntity
8
SOLIDS
100
AcDbVertex
100
AcDbPolygonMeshVertex
10
432
20
216
30
480
70
64
0
VERTEX
5
B1174
100
AcDbEntity
8
SOLIDS
100
AcDbVertex
100
AcDbPolygonMeshVertex
10
408
20
288
30
720
70
64
0
VERTEX
5
B1175
100
AcDbEntity
8
SOLIDS
100
AcDbVertex
100
AcDbPolygonMeshVertex
10
408
20
288
30
720
70
64
0
VERTEX
5
B1176
100
AcDbEntity
8
SOLIDS
100
AcDbVertex
100
AcDbPolygonMeshVertex
10
408
20
108
30
720
70
64
0
VERTEX
5
B1177
100
AcDbEntity
8
SOLIDS
100
AcDbVertex
100
AcDbPolygonMeshVertex
10
148
20
288
30
720
70
64
0
VERTEX
5
B1178
100
AcDbEntity
8
SOLIDS
100
AcDbVertex
100
AcDbPolygonMeshVertex
10
148
20
288
30
720
70
64
0
VERTEX
5
B1179
100
AcDbEntity
8
SOLIDS
100
AcDbVertex
100
AcDbPolygonMeshVertex
10
148
20
108
30
720
70
64
0
SEQEND
5
B1180
100
AcDbEntity
8
SOLIDS
0
POLYLINE
5
B1181
100
AcDbEntity
8
SOLIDS
100
AcDbPolygonMesh
66
1
10
0
20
0
30
0
70
16
71
6
72
3
0
VERTEX
5
B1182
100
AcDbEntity
8
SOLIDS
100
AcDbVertex
100
AcDbPolygonMeshVertex
10
384
20
0
30
960
70
64
0
VERTEX
5
B1183
100
AcDbEntity
8
SOLIDS
100
AcDbVertex
100
AcDbPolygonMeshVertex
10
408
20
108
30
720
70
64
0
VERTEX
5
B1184
100
AcDbEntity
8
SOLIDS
100
AcDbVertex
100
AcDbPolygonMeshVertex
10
408
20
108
30
720
70
64
0
VERTEX
5
B1185
100
AcDbEntity
8
SOLIDS
100
AcDbVertex
100
AcDbPolygonMeshVertex
10
144
20
0
30
960
70
64
0
VERTEX
5
B1186
100
AcDbEntity
8
SOLIDS
100
AcDbVertex
100
AcDbPolygonMeshVertex
10
148
20
108
30
720
70
64
0
VERTEX
5
B1187
100
AcDbEntity
8
SOLIDS
100
AcDbVertex
100
AcDbPolygonMeshVertex
10
148
20
108
30
720
70
64
0
VERTEX
5
B1188
100
AcDbEntity
8
SOLIDS
100
AcDbVertex
100
AcDbPolygonMeshVertex
10
144
20
144
30
960
70
64
0
VERTEX
5
B1189
100
AcDbEntity
8
SOLIDS
100
AcDbVertex
100
AcDbPolygonMeshVertex
10
148
20
288
30
720
70
64
0
VERTEX
5
B1190
100
AcDbEntity
8
SOLIDS
100
AcDbVertex
100
AcDbPolygonMeshVertex
10
148
20
108
30
720
70
64
0
VERTEX
5
B1191
100
AcDbEntity
8
SOLIDS
100
AcDbVertex
100
AcDbPolygonMeshVertex
10
384
20
144
30
960
70
64
0
VERTEX
5
B1192
100
AcDbEntity
8
SOLIDS
100
AcDbVertex
100
AcDbPolygonMeshVertex
10
408
20
288
30
720
70
64
0
VERTEX
5
B1193
100
AcDbEntity
8
SOLIDS
100
AcDbVertex
100
AcDbPolygonMeshVertex
10
408
20
108
30
720
70
64
0
VERTEX
5
B1194
100
AcDbEntity
8
SOLIDS
100
AcDbVertex
100
AcDbPolygonMeshVertex
10
384
20
144
30
960
70
64
0
VERTEX
5
B1195
100
AcDbEntity
8
SOLIDS
100
AcDbVertex
100
AcDbPolygonMeshVertex
10
384
20
144
30
960
70
64
0
VERTEX
5
B1196
100
AcDbEntity
8
SOLIDS
100
AcDbVertex
100
AcDbPolygonMeshVertex
10
384
20
0
30
960
70
64
0
VERTEX
5
B1197
100
AcDbEntity
8
SOLIDS
100
AcDbVertex
100
AcDbPolygonMeshVertex
10
144
20
144
30
960
70
64
0
VERTEX
5
B1198
100
AcDbEntity
8
SOLIDS
100
AcDbVertex
100
AcDbPolygonMeshVertex
10
144
20
144
30
960
70
64
0
VERTEX
5
B1199
100
AcDbEntity
8
SOLIDS
100
AcDbVertex
100
AcDbPolygonMeshVertex
10
144
20
0
30
960
70
64
0
SEQEND
5
B1200
100
AcDbEntity
8
SOLIDS
0
ENDSEC
0
SECTION
2
OBJECTS
0
DICTIONARY
5
C
100
AcDbDictionary
3
ACAD_GROUP
350
D
3
ACAD_MLINESTYLE
350
E
0
DICTIONARY
5
D
102
{ACAD_REACTORS
330
C
102
}
100
AcDbDictionary
0
DICTIONARY
5
E
102
{ACAD_REACTORS
330
C
102
}
100
AcDbDictionary
3
STANDARD
350
1C
0
MLINESTYLE
5
1C
102
{ACAD_REACTORS
330
E
102
}
100
AcDbMlineStyle
2
STANDARD
70
0
3

62
0
51
90.0
52
90.0
71
2
49
0.5
62
256
6
BYLAYER
49
-0.5
62
256
6
BYLAYER
0
ENDSEC
0
EOF
